Oops, an error
Loading. Please wait.

Little Things Bass Tab

version 1
version 1

Whole song

Interactive

by Bush
5,903 views 21 this week
no commentswrite comment
1 2 3 4 5
accurate
x 4
add to favorites
launch autoscroll
font size
0
reset
guitar tuner
Tab Pro tools
  • play this tab
  • loop segment
  • change instrument
  • show fretboard
  • metronome
Autoscroll
slow
fast
+/-
esc
set tempo
stop
#----------------------------------PLEASE NOTE---------------------------------#
#This file is the author's own work and represents their interpretation of the #
#song. You may only use this file for private study, scholarship, or research. #
#------------------------------------------------------------------------------##
Bush - Little Things
from Trauma

                     play 4 times
||-------------------|-----------------------------||
||o------------------|----------------------------o||
||o----------------3-|--3--3--3---3--3--5--5------o||
||---5--5\--1--1-----|------------------------0----||
                                                                        
                                                                        
Verse     
                   play 6 times
||---------------------------|-------------------------||
||o--------------------------|------------------------o||
||o--------------------------|-3--3--3--3--5--5--5--5-o||
||---5--5--5--5--1--1--1--1--|-------------------------||
                                                                        
                                                                        
|--------------------------|-------------------------|
|--------------------------|-------------------------|
|--------------------------|-3--3--3--3--5--5--5--5--|
|--5--5--5--5--1--1--1--1--|-------------------------|
                                                                        

Pre-Chorus
                                                                        
||--------------------------|-------------------------||
||o-------------------------|------------------------o||
||o-------------------------|-3--3--3--3--5--5--5--5-o||
||---5--5--5--5--1--1--1--1-|-------------------------||
                                                                        

Chorus
                              1.                                        
||--------------------------|-----------------------------||
||o-------------------------|----------------------------o||
||o----------------------3--|-3--3--3---3--3--5--5-------o||
||------5---5\---1--1-------|-----------------------0-----||
                                                                        
2.                           3.                                         
|--------------------------|-------------------------------------------|
|--------------------------|-------------------------------------------|
|--3--3--3--5----5--5------|-3-----------------------------------------|
|-----------------------0--|-------------------------------------------|
                                                                        
                                                                        
|--------------------------|-------------------------|------------------
|--------------------------|-------------------------|------------------
|--------------------------|-3--3--3--3--5--5--5--5--|------------------
|--5--5--5--5--1--1--1--1--|-------------------------|-5--5--5--5--1--1-
                                                                        
                                                                        
--------|-------------------------|
--------|-------------------------|
--------|-3--3--3--3--5--5--5--5--|
--1--1--|-------------------------|
                                                                        

3rd verse
                                                                        
||----------------------------|--------------------------|--------------
||o---------------------------|--------------------------|--------------
||o---------------------------|--3--3--3--3--5--5--5--5--|--------------
||----5--5--5--5--1--1--1--1--|--------------------------|-5--5--5--5--1


-----------|--------------------------||
-----------|-------------------------o||
-----------|--3--3--3--3--5--5--5--5-o||
--1--1--1--|--------------------------||
                                                                        
                                                                        
|--------------------------|--------------------------|
|--------------------------|--------------------------|
|--------------------------|--3--3--3--3--5--5--5--5--|
|--5--5--5--5--1--1--1--1--|--------------------------|
                                                                        
                                                                        
Pre-Chorus

||---------------------------|-----------------------------||
||o--------------------------|----------------------------o||
||o--------------------------|--3--3--3--3--5--5--5--5----o||
||---5--5--5--5--1--1--1--1--|-----------------------------||
                                                                        
                                                                        
Chorus
                       1.3.                          2.4.
||--------------------|----------------------------||-------------------||
||o-------------------|---------------------------o||------------------o||
||o----------------3--|-3--3--3---3--3--5--5------o||-3--3--5---5--5---o||
||-5---5\---1--1------|------------------------0---||----------------0--||
                                                                        

Guitar Solo
 play 5x                                                                
||-------------------|------------------------------||
||o------------------|-----------------------------o||
||o---------------3--|--3--3--3----3--3--5--5------o||
||-5--5\---1--1------|-------------------------0----||
                                                                        
  play 4times                                                           
||-----------------------------||----------------------------|
||o---------------------------o||o---------------------------|
||o---0--0--0--0--0--0--0--0--o||o----------------------3----|
||-----------------------------||-----5---5\----1--1---------|
                                                                        
                                                                        
|----------------------------|---------------------------|
|----------------------------|---------------------------|
|--3--3--3----3--3--5--5-----|----------------------3----|
|-------------------------0--|----5---5\----1--1---------|
                                                                        
                                                                        
|----------------------------|
|----------------------------|
|--3--3--3----3--3--5--5-----|
|-------------------------0--|

Outro           play 9 times
||--------------------|------------------------------||--------------|
||o-------------------|-----------------------------o||--------------|
||o----------------3--|--3--3--3----3--3--5--5------o||------0-------|
||--5--5\---1--1------|-------------------------0----||--------------|
                                                                        
                                                                        
=======================================================================
h = hammeron                    Judy Letostak                         
p = pulloff                     Internet letostak@ix.netcom.com
/\ = slide                      Fidonet 1:202/762                     
x = ghost note                  MetalNet 182:100/2                    
t = tap (right hand)            The Music Shop BBS (619)423-4970 24hrs
~ = vibrato                     * = picked harmonic
bf = bend full                  tr = trill
rb = release bend               p.s. = pick scrape
dive = dive with bar            b = bend / step written over note
========================================================================



From: CIone@aol.com
Date: Tue, 22 Aug 1995 20:32:43 -0400

here is the  bass tab to the Bush song "Little Things"
have fun and go wild

no Bass first 4 measures

[1] 13 measures

[2] 3 measures--hold

[1] 9 measures

[2] 9 measures =


[3] 16 times (2 measures)

[4] 4 measures

[2] 17 measures ( hold 1st note for 18th measure)


part 1

G---------------
D---------------
A2222----5555-7777
E----3333----------

part 2

------------------
------------------
------33-33/55---
55-111------------

part 3

-------------------
-------------------
2222222222222222----
-------------------

part 4

-----------------
-----------------
0--0--0----------
-33-33-----------
-------------------


send thanks to    CIone@AOL.COM

transcribed  by  Robbie Janson
                 ~~~~~~~~~~~~~

thats it have fun bash guitars and stuff at your concerts we do it
s  fun      bye ,Bert
 =

--PART.BOUNDARY.0.17742.mail02.mail.aol.com.809137958--



From: CIone@aol.com
Date: Thu, 31 Aug 1995 22:47:41 -0400

here are the corrections to my part 4 =

it is supposed to go

g-------------------
d--------------------
a--------------------
E-3-00-3-00-3-------

sorry that is clone  with a capitol  "i"   to  send thanx to   =

comments
print report bad tab
I want to post or [tab]
guest
You may want to rate the tab now too:
select rating
Please do not post tabs as comments. Select "correction" instead!