Oops, an error
Loading. Please wait.

Man On The Run tab

version 2
version 2

Whole song

by Bush
55 views 1 this week
no commentswrite comment
1 2 3 4 5
3 more votes to show rating
add to favorites
×
Save as Personal and add changes to this tab that will be seen only by you. Learn more ›
×
You can save this tab as Personal to edit and correct it or add notes. All changes will be seen only by you. Learn more »
launch autoscroll
font size
0
reset
how to read this tab
guitar tuner
edit
Autoscroll
slow
fast
+/-
esc
set tempo
stop
Author
-------------------------------------------------------------------------------
                             BUSH - Man On The Run
-------------------------------------------------------------------------------

Tabbed by: Tijs Primo
Tuning: E Standard



INTRO/VERSE 1
e|---------------------------------------------------------------------------|
B|---------------------------------------------------------------------------|
G|----------------5----------------------------------5-----------------------|
D|--2-------------5----------------2-----------------5-----------------------|
A|--2-------------3----------------2-----------------3-----------------------|
E|--0------------------------------0-----------------------------------------|

e|---------------------------------------------------------------------------|
B|---------------------------------------------------------------------------|
G|----------------7----------------------------------5-----------------------|
D|--2-------------7----------------2-----------------5-----------------------|
A|--2-------------5----------------2-----------------3-----------------------|
E|--0------------------------------0-----------------------------------------|

e|---------------------------------------------------------------------------|
B|---------------------------------------------------------------------------|
G|----------------7----------------------------------5-----------------------|
D|--2-------------7----------------2-----------------5-----------------------|
A|--2-------------5----------------2-----------------3-----------------------|
E|--0------------------------------0-----------------------------------------|


GTRII
e|---------------------------------------------------------------------|
B|---------------------------------------------------------------------|
G|---8h9p8-6-----------------------------------------------------------|
D|---------------------------------------------------------------------|
A|---------------------------------------------------------------------|
E|---------------------------------------------------------------------|


CHORUS                        Repeat 4 times then
e|------------------------------------------|--------------------------------|
B|------------------------------------------|--------------------------------|
G|--------------------2-2--2----------------|--------------------------------|
D|--5-5--5---2-2--2---2-2--2---5-5--5-------|-----2--------------------------|
A|--5-5--3---2-2--2---0-0--0---5-5--5-------|-----2--------------------------|
E|--3-3--3---0-0--0------------3-3--3-------|-----0--------------------------|

2nd Guitar: Play this 'till the end of chorus
e|-----------------------------------------------------------|
B|-----------------------------------------------------------|
G|---14----14----14----14------------------------------------|
D|-----------------------------------------------------------|
A|-----------------------------------------------------------|
E|-----------------------------------------------------------|


VERSE 2
e|---------------------------------------------------------------------------|
B|---------------------------------------------------------------------------|
G|----------------5----------------------------------7-----------------------|
D|--2-------------5----------------2-----------------7-----------------------|
A|--2-------------3----------------2-----------------5-----------------------|
E|--0------------------------------0-----------------------------------------|

e|---------------------------------------------------------------------------|
B|---------------------------------------------------------------------------|
G|----------------5----------------------------------7-----------------------|
D|--2-------------5----------------2-----------------7-----------------------|
A|--2-------------3----------------2-----------------5-----------------------|
E|--0------------------------------0-----------------------------------------|



CHORUS                        Repeat 4 times then
e|------------------------------------------|--------------------------------|
B|------------------------------------------|--------------------------------|
G|--------------------2-2--2----------------|--------------------------------|
D|--5-5--5---2-2--2---2-2--2---5-5--5-------|-----2--------------------------|
A|--5-5--3---2-2--2---0-0--0---5-5--5-------|-----2--------------------------|
E|--3-3--3---0-0--0------------3-3--3-------|-----0--------------------------|

2nd Guitar: Play this 'till the end of chorus
e|-----------------------------------------------------------|
B|-----------------------------------------------------------|
G|---14----14----14----14------------------------------------|
D|-----------------------------------------------------------|
A|-----------------------------------------------------------|
E|-----------------------------------------------------------|


BRIDGE: Doesn't include guitar, but you can play the CHORUS part palm muted if you want.



CHORUS                        
e|-----------------------------------------|--|--------------------------------|
B|-----------------------------------------|--|--------------------------------|
G|--------------------2-2--2---------------|7x|--------------------------------|
D|--5-5--5---2-2--2---2-2--2---5-5--5------|--|-----2--------------------------|
A|--5-5--3---2-2--2---0-0--0---5-5--5------|--|-----2--------------------------|
E|--3-3--3---0-0--0------------3-3--3------|--|-----0--------------------------|

2nd Guitar: Play this 'till the end of chorus
e|-----------------------------------------------------------|
B|-----------------------------------------------------------|
G|---14----14----14----14------------------------------------|
D|-----------------------------------------------------------|
A|-----------------------------------------------------------|
E|-----------------------------------------------------------|

************************************

| h   hammer-on
| p   pull-off

************************************
Suggest correction
Creating personal tab
Creating personal tab
You can edit any tab online and save it as your Personal.

You can edit, replace or remove any tab part or add personal notes – all changes will be seen only by you.

Personal tabs can be accessed anytime from any device, even offline.
Learn more »
Give kudos to tab author, rate the tab!
1 2 3 4 5
comments
print report bad tab
guest
You may want to rate the tab now too:
select rating
Wanna post a correction for this tab? Suggest correction