Oops, an error
Loading. Please wait.

People That We Love Tab

version 3
version 3

Whole song

Interactive

by Bush
1,936 views 12 this week
no commentswrite comment
1 2 3 4 5
accurate
x 11
add to favorites
launch autoscroll
font size
0
reset
how to read this tab
guitar tuner
Autoscroll
slow
fast
+/-
esc
set tempo
stop
Help us to improve Ultimate-Guitar.com Take our survey!
×
Author
This is 100% correct, there is absolutley nothing wrong with this
I got it out of the book

This is the Whole song, comes with both guitar parts, intro, solo, BASS AND DRUMS!!!
(drums at end)

If you have an extra guitarist or something this is that thing in the background
e-17---17----17----17----17---
b---17----17----17----17----17

Nigel:
e-8------8-------8-------------8------------------8--------
b--10-10---10-10---10-----10-----10---10-----10----10---10-
g---------------------9-9----9------9----8-8----8-----8----
d----------------------------------------------------------
a----------------------------------------------------------
E----------------------------------------------------------

e----------8-----------------8--------
b-----10-----10---10-----10----10---10
g-9-9----9------9----8-8----8-----8---
d-------------------------------------
a-------------------------------------
E-------------------------------------

(Keep Playing This to "speed kills")

Dave:
[guitar] {bass}
e--------------------------------------------------------------------
b--------------------------------------------------------------------
g--------------------------------------------------------------------
d--------------------------------------------------------------------
a-[0]{12,4times}----------------[3]{15,4times}-[0]{12}------[0]{12,2x}
E----------------[0]{12,4times}----------------------[3]{15}---------

(play this till "we expect her gone")

Gavin:

e------------------------------------------------
b------------------------------------------------
g--8-8-8-8-8-8-8-8-9-9-9-9-9-9-9-9---------------
d--8-8-8-8-8-8-8-8-9-9-9-9-9-9-9-9---------------
a--6-6-6-6-6-6-6-6-7-7-7-7-7-7-7-7---------------
E------------------------------------------------

(all stop but bass)

Speed kills coming down the mountain
Speek kills coming down the street
Speed kills your presence of mind and
Speed kills if you know what I mean

Nigel:
e-8------8-------8-------------8------------------8--------
b--10-10---10-10---10-----10-----10---10-----10----10---10-
g---------------------9-9----9------9----8-8----8-----8----
d----------------------------------------------------------
a----------------------------------------------------------
E----------------------------------------------------------

Gavin:

e------------------------------------------------
b------------------------------------------------
g--8-8-8-8-8-8-8-8-9-9-9-9-9-9-9-9---------------
d--8-8-8-8-8-8-8-8-9-9-9-9-9-9-9-9---------------
a--6-6-6-6-6-6-6-6-7-7-7-7-7-7-7-7---------------
E------------------------------------------------

(bass keep playing)

I got to feel, woke up inside again
I got to feel less broke for fix
I got to feel, when i got outside myself
I got to feel when I touched your lips

Nigel:
e---------------------------------------
b---------------------------------------
g-----------------5-5-5-5---------------
d-7-7-7-7-2-2-2-2-5-5-5-5-7-5-7---------
a-7-7-7-7-2-2-2-2-3-3-3-3-7-5-7---------
E-5-5-5-5-0-0-0-0---------5-3-5---------

The Things We do to the people that we love
The way we break into something we cant take

Gavin:

e------------------------------------------------
b------------------------------------------------
g--8-8-8-8-8-8-8-8-9-9-9-9-9-9-9-9---------------
d--8-8-8-8-8-8-8-8-9-9-9-9-9-9-9-9---------------
a--6-6-6-6-6-6-6-6-7-7-7-7-7-7-7-7---------------
E------------------------------------------------


Destroy the world now it took so long to make

e------------------------------------------------
b------------------------------------------------
g--8-8-8-8-8-8-8-8-9-9-9-9-9-9-9-9---------------
d--8-8-8-8-8-8-8-8-9-9-9-9-9-9-9-9---------------
a--6-6-6-6-6-6-6-6-7-7-7-7-7-7-7-7---------------
E------------------------------------------------

Dave: {bass} [guitar]
e------------------------------------------------------
b------------------------------------------------------
g------------------------------------------------------
d------------------------------------------------------
a-------------------{12}[0](15 times)------------------
E-{13}[1](15 times)-------------------{13}[1](15 times)

We expect her gone, for some time, I wish you're safe from home
e--------------------------------------------
b--------------------------------------------
g--------------------------------------------
d--------------------------------------------
a-{15}[3](five times)-{14}[2]-{15}[3]-(6times) {repeat twice}
E--------------------------------------------

To find yourself, in a foreign land, another refugee, outsider refugee

Nigel:
(and only Nigel)
e--------------------------------------------
b--------------------------------------------
g--------------------------------------------
d--------------------------------------------
a-0-0-0-0-------3-3-3-3-0---0-0--------------
E--------0-0-0-0----------3------------------

(dave comes in with main bass riff, gavin plays his part again)

(solo)
e--5/12/5/10/5/7/8/7/5/7-7/12/5/7/8/7/5/7/12- {try bending the strings
b--------------------------------------------  it would be harder than
g--------------------------------------------  shit to use a whammy 
d--------------------------------------------  bar}
a--------------------------------------------
E--------------------------------------------

Gavin & Nigel: 
e-----------
b-----------
g-----5-----
d-7-2-5-----
a-7-2-3-----
E-5-0-------

Dave:
e--------------------------
b--------------------------
g--------------------------
d--------------------------
a-[0]{12}--------[3]{13}---
E--------[0]{12}-----------


Robin

[b/4] quarter beat
[b/8] eighth beat
[b/16]16th beat

[R/4] quarter Rest
[r/8] eighth rest
[r/


**To those or you who can understand this, good for you, if you can't then 
pay attention**

The beat in this song is 4/4
Say Down Down Down Down
Now if you say it normally, this is the exact beat this song is at

A quarter note would then equal in time if you said "down"

An eighth note would be equal in time if you said "up"

A sixteenth note would be equal in time if you said "e"

The rests take the exact same time as a beat would, BUT YOU DON'T PLAY ANYTHING

Simple egnough right?
here we go

[b/8] [b/8] [b/16] [b/4] [b/8] [b/8] [b/16] [b/4] [b/8] [b/8] [r/4][b/4]  [b/4] 

(this is basically the whole drum riff) the chorus is only slightly different,

Have fun, If your band can't play this song or something that slightly resembles 
the song, then you guys suck.

Tabbed By Warm_Machine
Suggest correction
comments
print report bad tab
guest
You may want to rate the tab now too:
select rating
Please do not post tabs as comments. Select "correction" instead!