Oops, an error
Loading. Please wait.

Swallowed chords

version 1
version 1

Whole song

Interactive

by Bush
33,832 views 141 this week
2 commentsread comments
1 2 3 4 5
x 20
add to favorites
×
Save as Personal and add changes to this tab that will be seen only by you. Learn more ›
×
You can save this tab as Personal to edit and correct it or add notes. All changes will be seen only by you. Learn more »
launch autoscroll
font size
0
reset
transpose
0
reset
display chords
guitar tuner
backing track
0:00
0:00
edit
Autoscroll
slow
fast
+/-
esc
set tempo
stop
Author
Difficulty
Strumming
There is no strumming pattern for this song yet. and get +5 IQ
[Intro/Verse]

e|----------------------------------|
B|----------------------------------|
G|-----7----7----6--11------11------|
D|--7--7--7---7--6--11--11------11--|
A|--7--5---------4---9--------------|
E|--5-------------------------------|


[Chorus]

Guitar 1
e|--------------------------------------------------------------------|
B|--------------------------------------------------------------------|
G|------------------7-7-7-7-7-7-7-7-6-6-6-6-6-6-6-6-9-9-9-9-9-9-9-9---|
D|--7-7-7-7-7-7-7-7-7-7-7-7-7-7-7-7-6-6-6-6-6-6-6-6-9-9-9-9-9-9-9-9---|
A|--7-7-7-7-7-7-7-7-5-5-5-5-5-5-5-5-4-4-4-4-4-4-4-4-7-7-7-7-7-7-7-7---|
E|--5-5-5-5-5-5-5-5---------------------------------------------------|


[Verse]

G# C# C Fm

G#   C#  C       Fm
Warm sun feed me up and I’m 
leery loaded up
Loathing for a change and 
I slip some boil away
Just wanted to be myself
Hey you said you would love to try some
Hey you said you would love to die some
In the middle of a world on a fishhook 
You’re the wave
Piss on self-esteem, forward busted knee
Sick head blackened lungs 
And I’m simple selfish son


[Chorus]

G# C C# Bbm

G#        C
Swallowed followed
C#                            Bbm
Heavy about everything but my love
Swallowed sorrowed
I’m with everyone and yet not
Swallowed borrowed
Heavy about everything but my love
Swallowed hollowed
Sharp about everyone but yourself
Got to get away from here
I miss the one that I love a lot
Suggest correction
Creating personal tab
Creating personal tab
You can edit any tab online and save it as your Personal.

You can edit, replace or remove any tab part or add personal notes – all changes will be seen only by you.

Personal tabs can be accessed anytime from any device, even offline.
Learn more »
comments
print report bad tab
2 comments total.
+1 reply
KryptoKnight 10 Aug 01, 2014 05:38 PM

Should be tuned down a half step to match the original tune. Also should be a regular Bm and not a Bbm.

+1 reply
freddan1979 10 May 05, 2015 05:13 AM

didn't like this contribution

guest
You may want to rate the tab now too:
select rating
Wanna post a correction for this tab? Suggest correction