Oops, an error
Loading. Please wait.

Swallowed Tab

version 2
version 2

Whole song

Interactive

69,787 views 60 this week
12 commentsread comments
1 2 3 4 5
x 27
add to favorites
launch autoscroll
font size
0
reset
how to read this tab
guitar tuner
×
Best way to learn
"Swallowed"
Autoscroll
slow
fast
+/-
esc
set tempo
stop
Tuning: Standard Eadgbe

(There are 2 guitars, both standard tuning.)
e|---------------------------------------------------------------------------|
B|---------------------------------------------------------------------------|
G|-------6------6~------------------10--------10~----------------------------|
D|--6----6---6~----6~--------10-----10----10~-----10~------------------------|
A|--6----4-------------------10-----8----------------------------------------|
E|--4------------------------8-----------------------------------------------|

[Intro] 
(guitar 1 only)
(Guitar 1, Heavy distortion at low volume (Played through mesa Boogie triple rectifier, 
1989 fender stratocastor.
On one guitar.  Play four times)
e|---------------------------------------------------------------------------|
B|---------------------------------------------------------------------------|
G|-------------------5-5-5-5-5-5-5-5--6-6-6-6-6-6-6-6------------------------|
D|--6-6-6-6-6-6-6-6--5-5-5-5-5-5-5-5--6-6-6-6-6-6-6-6--8-8-8-8-8-8-8-8-------|
A|--6-6-6-6-6-6-6-6--3-3-3-3-3-3-3-3--4-4-4-4-4-4-4-4--8-8-8-8-8-8-8-8-------|
E|--4-4-4-4-4-4-4-4------------------------------------6-6-6-6-6-6-6-6-------|

[Chorus] 
(Part 1)
e|---------------------------------------------------------------------------|
B|---------------------------------------------------------------------------|
G|-------------------5-5-5-5-5-5-5-5--6-6-6-6-6-6-6-6------------------------|
D|--6-6-6-6-6-6-6-6--5-5-5-5-5-5-5-5--6-6-6-6-6-6-6-6--8-8-8-8-8-8-8-8-------|
A|--6-6-6-6-6-6-6-6--3-3-3-3-3-3-3-3--4-4-4-4-4-4-4-4--8-8-8-8-8-8-8-8-------|
E|--4-4-4-4-4-4-4-4------------------------------------6-6-6-6-6-6-6-6-------|

[Chorus] 
(Part 2)
e|----------------------------------------------------------------------|
B|----------------------------------------------------------------------|
G|-------------------5-5-5-5-5-5-5-5-------------------5-5-5-5-5-5-5-5--|
D|--6-6-6-6-6-6-6-6--5-5-5-5-5-5-5-5--6-6-6-6-6-6-6-6--5-5-5-5-5-5-5-5--|
A|--6-6-6-6-6-6-6-6--3-3-3-3-3-3-3-3--6-6-6-6-6-6-6-6--3-3-3-3-3-3-3-3--|
E|--4-4-4-4-4-4-4-4-------------------4-4-4-4-4-4-4-4-------------------|

e|--4-----(Play--)-----3----(play--)-------9------9--------------6-----6-----|
B|--7b9---(8times)-----6b8--(8times)-----9----9-----9--------------6---------|
G|-----------------------------------1/6--------6-----6---1/3-3------3-------|
D|---------------------------------------------------------------------------|
A|---------------------------------------------------------------------------|
E|---------------------------------------------------------------------------|

e|--4-----(Play--)-----3----(play--)-------9------9--------------6-----6-----|
B|--7b9---(8times)-----6b8--(8times)-----9----9-----9--------------6---------|
G|-----------------------------------1/6--------6-----6---1/3-3------3-------|
D|---------------------------------------------------------------------------|
A|---------------------------------------------------------------------------|
E|---------------------------------------------------------------------------|

[Chorus] 
(Part 1)
(Guitar 2)
e|--4----(play--)-3----(play**)-3------3-3-----------------------------------|
B|--7b9--(4times)-6b8--(6times)-6------5-5-----------------------------------|
G|---------------------------------------------------------------------------|
D|---------------------------------------------------------------------------|
A|---------------------------------------------------------------------------|
E|---------------------------------------------------------------------------|

(Part 2)
(guitar 2)
e|--4----(play--)-3----(play**)-3------3-3-----------------------------------|
B|--7b9--(4times)-6b8--(6times)-6------5-5-----------------------------------|
G|---------------------------------------------------------------------------|
D|---------------------------------------------------------------------------|
A|---------------------------------------------------------------------------|
E|---------------------------------------------------------------------------|

(Solo for guitar 1) 
(Right at the end of the second chorus)
No other instruments play
e|------------------------------------------------------|
B|--5-5-5-5-5b-5b-5b-5b-5b6-5b6-5b6-5b6-5b7-5b7-5b7-5b7-|
G|------------------------------------------------------|
D|------------------------------------------------------|
A|------------------------------------------------------|
E|------------------------------------------------------|

(First Solo for guitar 2 At end of second chorus)
Other instruments play (Chorus part 2)
e|---------------------------------------------------------------------------|
B|--------------4--5----5---5---5---5---------------4-5---5---5--5-----------|
G|-1-1-1-1--1/5------5---5----5---5-----1-1-1-1-1/5-----5---5--5---5---------|
D|---------------------------------------------------------------------------|
A|---------------------------------------------------------------------------|
E|---------------------------------------------------------------------------|

e|-4---(play--)--3----(play--)--8-----(play--)------------12---(play--)------|
B|-7b9-(4times)--6b8--(4times)--11b13-(3times)--15b-------15b17(3times)------|
G|---------------------------------------------------------------------------|
D|---------------------------------------------------------------------------|
A|---------------------------------------------------------------------------|
E|---------------------------------------------------------------------------|

e|-4---(play--)--3----(play--)--8-----(play--)--8------8----------------------|
B|-7b9-(4times)--6b8--(4times)--11b13-(3times)--11b12--11b--x-----------------|
G|----------------------------------------------------------x-----------------|
D|----------------------------------------------------------(pick scrapes)----|
A|----------------------------------------------------------------------------|
E|----------------------------------------------------------------------------|

(Guitar Solo 2 after 3rd verse and 3rd "chorus part 1")
e|---------------------------------------------------------------------------|
B|--------------4--5----5---5---5---5---------------4-5---5---5--5-----------|
G|-1-1-1-1--1/5------5---5----5---5-----1-1-1-1-1/5-----5---5--5---5---------|
D|---------------------------------------------------------------------------|
A|---------------------------------------------------------------------------|
E|---------------------------------------------------------------------------|

e|--4----(play--)-3----(play**)-----------------------------------------------|
B|--7b9--(4times)-6b8--(6times)-6------5-5------------------------------------|
G|----------------------------------------------------------------------------|
D|----------------------------------------------------------------------------|
A|----------------------------------------------------------------------------|
E|----------------------------------------------------------------------------|

e|--4~~~~--(play--)-3~~~~-(play**)-3------3-3--------------------------------|
B|--7b9~~--(4times)-6b8~~-(6times)-6------5-5--------------------------------|
G|---------------------------------------------------------------------------|
D|---------------------------------------------------------------------------|
A|---------------------------------------------------------------------------|
E|---------------------------------------------------------------------------|

e|-4---(play--)--3----(play--)--8-----(play--)------------12---(play--)------|
B|-7b9-(4times)--6b8--(4times)--11b13-(3times)--15b-------15b17(3times)------|
G|---------------------------------------------------------------------------|
D|---------------------------------------------------------------------------|
A|---------------------------------------------------------------------------|
E|---------------------------------------------------------------------------|

e|-4---(play--)--3----(play--)--8-----(play--)------------12---(play--)------|
B|-7b9-(4times)--6b8--(4times)--11b13-(3times)--15b-------15b17(3times)------|
G|---------------------------------------------------------------------------|
D|---------------------------------------------------------------------------|
A|---------------------------------------------------------------------------|
E|---------------------------------------------------------------------------|

e|-12------------12-/12--13------12--13------16-----18---~~~~~~~~~-|
B|-15b17--15b17----------16b18-------16b18---19b21--21b23~~~~~~~~~-|
G|-----------------------------------------------------------------|
D|-----------------------------------------------------------------|
A|-----------------------------------------------------------------|
E|-----------------------------------------------------------------|

[Outro] 
(guitar 1 only)
(Start on the C5 at the end of "Chorus part 2"
e|-------------------------------------------------------------------|
B|-------------------------------------0----0-----------5~~~\0-------|
G|-5-5-5-5-5-5-5-5---5/6----6\3------3--3-----3-----5-------\0-------|
D|-5-5-5-5-5-5-5-5---5/6----6\3----3------3--------5--5-----\0-------|
A|-3-3-3-3-3-3-3-3---3/4----4\1---1--------------3----------\0-------|
E|-------------------------------------------------------------------|

e|----------------------------------------------------------------------|
B|----------------------------------------------------------------------|
G|----------------------------------------------------------------------|
D|-----6-6---6-6-6--6-6-6--6-6-6----------------------------------------|
A|-----6-6---6-6-6--6-6-6--6-6-6----------------------------------------|
E|-----4-4---4-4-4--4-4-4--4-4-4----------------------------------------|



************************************

| ~  Vibrato
| b  Bend
| /  Slide up
| x  Dead note
| \  Slide down
| (  
| (Play 
| (pick scrapes) 
| (play 
| (play**) 
| )  
| times) 
| ~~~\ 

************************************
Suggest correction
comments
print report bad tab
12 comments total. Showing first comments.
+8 reply
CrazyMonkey 113 Aug 18, 2004 08:00 PM

wow... I feel so lucky to be able to view such a grand tab. whatever dude.

0 reply
smidy 72 Aug 26, 2004 08:00 PM

Its a top notch tab compared to the other one.

0 reply
Jyce frost 10 Jul 10, 2005 08:00 PM

good tab, minus the ***y

guest
You may want to rate the tab now too:
select rating
Wanna post a correction for this tab? Suggest correction