Oops, an error
Loading. Please wait.

Synapse Bass Tab

by Bush
280 views 1 this week
no commentswrite comment
1 2 3 4 5
please rate
add to favorites
launch autoscroll
font size
0
reset
guitar tuner
Autoscroll
slow
fast
+/-
esc
set tempo
stop
Help us to improve Ultimate-Guitar.com Take our survey!
×
Author
Band:Bush

Song:Synapse

Album:Razorblade Suitcase

Tabbed By:Shane Davis

Tuning:Standard


Verse
G---------------------------|
D---------------------------|
A---------------------------|
E-1-1-1-1-1-1--5-5-5--5-5-5-|


Chorus
G-------------------------------|-------------------------------|
D-3-2-3-2-3-2--7--7-7-7-7-7-7-7-|-3-2-3-2-3-5--7--7-7-7-7-7-7-7-|
A-------------------------------|-------------------------------|
E-------------------------------|-------------------------------|


Bridge
G---------------------------------|
D---------------------------------|
A-3-3-3-3-3-3-3-3-0-0-0-0-0-0-0-0-|
E---------------------------------|


Outro
G---------------------------------|---------------------------------|
D-3-3-3-3-3-3-3-3-7-7-7-7-7-7-7-7-|-3-3-3-3-3-3-3-3-7-7-7-7-7-7-7-7-|
A---------------------------------|---------------------------------|
E---------------------------------|---------------------------------|


Outro(Continued)
G-------------------------------------------------------------------|
D-------------------------------------------------------------------|
A-------------------------------------------------------------------|
E-1-1-1-0-1-1-1-0-1-1-1-0-1-1-1-0-1-1-1-0-1-1-1-0-1-1-1-0-1-1-1-0-1-|
Suggest correction
Give kudos to tab author, rate the tab!
1 2 3 4 5
comments
print report bad tab
guest
You may want to rate the tab now too:
select rating
Wanna post a correction for this tab? Suggest correction