Oops, an error
Loading. Please wait.

The Sound Of Winter Bass Tab

version 1
version 1

Whole song

Interactive

by Bush
3,479 views 3 this week
no commentswrite comment
1 2 3 4 5
accurate
x 4
add to favorites
launch autoscroll
font size
0
reset
guitar tuner
Autoscroll
slow
fast
+/-
esc
set tempo
stop
Help us to improve Ultimate-Guitar.com Take our survey!
×
Author
Difficulty
novice
"The Sound of Winter" by Bush
Album: The Sea of Memories (2011)
Bassist: Corey Britz
Tabbed by: Ty W. a.k.a. Tydogg2443 @ YouTube
Tuning: Standard (E,A,D,G)
BPM: 240


=================================================

Intro  (4x)                            Verse Pt.1  (1x)                  
G|---------------------------------|   |---------------------------------|
D|---------------------------------|   |---------------------------------|
A|-7-7-7-7-7-7-7-7-7-7-7-7-7-7-7-7-|   |\3-3-3-3-3-3-3-3-3-3-3-3-3-3-3-3-|
E|---------------------------------|   |---------------------------------|

Verse Pt.2 (3x)                        Verse Pt.1  (1x)               
G|---------------------------------|   |---------------------------------|
D|---------------------------------|   |---------------------------------|
A|-7-7-7-7-7-7-7-7-7-7-7-7-7-7-7-7-|   |\3-3-3-3-3-3-3-3-3-3-3-3-3-3-3-3-|
E|---------------------------------|   |---------------------------------|

Verse End (1x)                         
G|---------------------------------|
D|---------------------------------|
A|-7-7-7-7-7-7-7-7-7-7-7-7-7-7-7-7-|
E|---------------------------------|

=====================CHORUS=====================

Pre-Chorus (1x)                        
G|--------------|--------------|-----------------|-----------------|
D|--------------|--------------|-----------------|-----------------|
A|--------------|--------------|-----------------|-----------------|
E|--5--5--5h7-5-|-3--3-3-3-5-3-|-0-0-0-0-0-0-0-0-|-0-0-0-0-0-0-0-0-|

Chorus (1x)                        
G|-----------------|-----------------|-----------------|------------------|
D|-----------------|-----------------|-----------------|------------------|
A|-3-3-3-3-3-3-3-3-|-0-0-0-0-0-0-0-0/|-7-7-7-7-7-7-7-7-|-5--5-5-5-5-5-7-7-|
E|-----------------|-----------------|-----------------|------------------|

 |-----------------|-----------------|-----------------|------------------|
 |-----------------|-----------------|-----------------|------------------|
 |-3-3-3-3-3-3-3-3-|-0-0-0-0-0-0-0-0/|-7-7-7-7-7-7-7-7-|-5--5-5-5-5-5-5-5-|
 |-----------------|-----------------|-----------------|------------------|
                       
 |-----------------|-----------------|
 |-----------------|-----------------|
 |-3-3-3-3-3-3-3-3-|-0-0-0-0-0-0-0-0-|
 |-----------------|-----------------|

====================VERSE=======================

Verse Pt.2 (3x)                        Verse Pt.1  (1x)               
G|---------------------------------|   |---------------------------------|
D|---------------------------------|   |---------------------------------|
A|-7-7-7-7-7-7-7-7-7-7-7-7-7-7-7-7-|   |\3-3-3-3-3-3-3-3-3-3-3-3-3-3-3-3-|
E|---------------------------------|   |---------------------------------|

Verse End (1x)                         
G|---------------------------------|
D|---------------------------------|
A|-7-7-7-7-7-7-7-7-7-7-7-7-7-7-7-7-|
E|---------------------------------|

====================CHORUS=======================

Pre-Chorus (1x)                        
G|--------------|--------------|-----------------|-----------------|
D|--------------|--------------|-----------------|-----------------|
A|--------------|--------------|-----------------|-----------------|
E|--5--5--5h7-5-|-3--3-3-3-5-3-|-0-0-0-0-0-0-0-0-|-0-0-0-0-0-0-0-0-|

Chorus (4x)                        
G|-----------------|-----------------|-----------------|-----------------|
D|-----------------|-----------------|-----------------|-----------------|
A|-3-3-3-3-3-3-3-3-|-0-0-0-0-0-0-0-0/|-7-7-7-7-7-7-7-7-|-5-5-5-5-5-5(7-7)|
E|-----------------|-----------------|-----------------|-----------------|

Chorus End (1x)                         
G|-----------------|-----------------|
D|-----------------|-----------------|
A|-3-3-3-3-3-3-3-3-|-0-0-0-0-0-0-0-0-|
E|-----------------|-----------------|

===================GTR SOLO=======================

Guitar Solo Pt 1 (1x)
G|-----------------|-----------------|-----------------|-----------------|
D|-----------------|-----------------|-----------------|-----------------|
A|-7-7-7-7-7-7-7-7-|-5-5-5-5-5-5-5-5-|-3-3-3-3-3-3-3-3-|-0-0-0-0-0-0-0-0/|
E|-----------------|-----------------|-----------------|-----------------|

Guitar Solo Pt 2 (2x)
G|-----------------|-----------------|-----------------|-----------------|
D|-----------------|-----------------|-----------------|-----------------|
A|-7-7-7-7-7-7-7-7-|-5-5-5-5-5-5-7-7-|-3-3-3-3-3-3-3-3-|-0-0-0-0-0-0-0-0/|
E|-----------------|-----------------|-----------------|-----------------|

Guitar Solo End (1x) 
G|-----------------|-----------------|-----------------|-----------------|
D|-----------------|-----------------|-----------------|-----------------|
A|-7-7-7-7-7-7-7-7-|-5-5-5-5-5-5-5-5-|-3-3-3-3-3-3-3-3-|-0-0-0-0-0-0-0-0-|
E|-----------------|-----------------|-----------------|-----------------|

=====================CHORUS========================

Chorus (1x)                        
G|-----------------|-----------------|-----------------|-----------------|
D|-----------------|-----------------|-----------------|-----------------|
A|-3-3-3-3-3-3-3-3-|-0-0-0-0-0-0-0-0/|-7-7-7-7-7-7-7-7-|-5-5-5-5-5-5-7-7-|
E|-----------------|-----------------|-----------------|-----------------|
 
 |-----------------|-----------------|-----------------|-----------------|
 |-----------------|-----------------|-----------------|-----------------|
 |-3-3-3-3-3-3-3-3-|-0-0-0-0-0-0-0-0/|-7-7-7-7-7-7-7-7-|-5-5-5-5-5-5-5-5-|
 |-----------------|-----------------|-----------------|-----------------|

Chorus End (1x)                         
G|-----------------|-----------------|
D|-----------------|-----------------|
A|-3-3-3-3-3-3-3-3-|-0-0-0-0-0-0-0-0-|
E|-----------------|-----------------|

======================OUTRO=========================

Outro/Guitar Solo(2x)
G|-----------------|-----------------|-----------------|-----------------|   
D|-----------------|-----------------|-----------------|-----------------|   
A|-7-7-7-7-7-7-7-7-|-5-5-5-5-5-5-5-5-|-3-3-3-3-3-3-3-3-|-0-0-0-0-0-0-0-0-| 
E|-----------------|-----------------|-----------------|-----------------|

End 
G|-----------------|
D|-----------------|
A|--7--(let ring)--|
E|-(0)-------------|

========================================================

Tablature Key:
| /  slide up
| \  slide down
| h  hammer-on
| p  pull-off
| ~  vibrato
| +  harmonic
| x  Mute note
|( ) Optional Note or Variation

============================================================================
Suggest correction
comments
print report bad tab
guest
You may want to rate the tab now too:
select rating
Wanna post a correction for this tab? Suggest correction