Oops, an error
Loading. Please wait.

X-Girlfriend Bass Tab

by Bush
91 views 1 this week
no commentswrite comment
1 2 3 4 5
3 more votes to show rating
add to favorites
launch autoscroll
font size
0
reset
guitar tuner
Autoscroll
slow
fast
+/-
esc
set tempo
stop
Help us to improve Ultimate-Guitar.com Take our survey!
×
Difficulty
novice
X-GIRLFRIEND
BUSH
SIXTEEN STONE

Very simple, fast, short song.
Enjoy!

Standard E tuning

G---|-------------------------------|-------------------------------|
D---|0-2-2-2-0-2-2-2-0-2-2-2-0-2-2-2|-------------------------------|
A---|-------------------------------|-------------------------------|
E---|-------------------------------|3-5-5-5-3-5-5-5-3-5-5-5-3-5-5-5|


G---|-------------------------------|-------------------------------|
D---|-------------------------------|0-2-2-2-0-2-2-2-0-2-2-2-0-2-2-2|
A---|0-2-2-2-0-2-2-2-0-2-2-2-0-2-2-2|-------------------------------|
E---|-------------------------------|-------------------------------|


G---|-------------------------------|-------------------------------|
D---|0-2-2-2-0-2-2-2-0-2-2-2-0-2-2-2|0-2-2-2-0-2-2-2-0-2-2-2-0-2-2-2|
A---|-------------------------------|-------------------------------|
E---|-------------------------------|-------------------------------|


G---|-------------------------------|-------------------------------|
D---|-------------------------------|-------------------------------|
A---|0------------------------------|-------------------------------|
E---|----------------4--------------|2------------------------------|


G---|-------------------------------|-------------------------------||
D---|-------------------------------|0-2-2-2-0-2-2-2-0-2-2-2-0-2-2-2||
A---|0-2-2-2-0-2-2-2-0-2-2-2-0-2-2-2|-------------------------------||
E---|-------------------------------|-------------------------------||
Suggest correction
Give kudos to tab author, rate the tab!
1 2 3 4 5
comments
print report bad tab
guest
You may want to rate the tab now too:
select rating
Wanna post a correction for this tab? Suggest correction