Oops, an error
Loading. Please wait.

Suburban Rebels bass

166 views 3 this week
no commentswrite comment
1 2 3 4 5
2 more votes to show rating
add to favorites
×
Save as Personal and add changes to this tab that will be seen only by you. Learn more ›
×
You can save this tab as Personal to edit and correct it or add notes. All changes will be seen only by you. Learn more »
launch autoscroll
font size
0
reset
guitar tuner
edit
Autoscroll
slow
fast
+/-
esc
set tempo
stop
Author
Difficulty
Song: Suburban Rebels
Artist: Business, The
Album: Suburban Rebels
Genre: Oi!
Year: 1983

Hey guys! This is the bass tab of the song and I think it's 95% correct.
Anyway, enjoy the Business!

Verse:

G:-------------------------
D:-------------------------
A:--------5-55-3-3-7-777---
E:---3-33------------------

Pre-Chorus:

G:------------------------------
D:---5-5-5------------2-2-------
A:---------55-5-3-3-3-----5-5---
E:------------------------------

Chorus:

G:---------------------------------------
D:-----------------------5-5-5-55-55-5---
A:---7-777777-5-5555-7-9-----------------
E:---------------------------------------

End:

G:-------
D:-------
A:-------
E:---3---
       
The order is:
.Verse x12 (Guitar play first 2 times)
.Pre-Chorus x2
.Chorus x4
.Verse x12
.Pre-Chorus x2
.Chorus x4
.Verse x2
.End x1






Tab by: mdc_ivan


          

            
            
Suggest correction
Creating personal tab
Creating personal tab
You can edit any tab online and save it as your Personal.

You can edit, replace or remove any tab part or add personal notes – all changes will be seen only by you.

Personal tabs can be accessed anytime from any device, even offline.
Learn more »
Give kudos to tab author, rate the tab!
1 2 3 4 5
comments
print report bad tab
guest
You may want to rate the tab now too:
select rating
Wanna post a correction for this tab? Suggest correction