Oops, an error
Loading. Please wait.

Air Hostess tab

version 4
version 4

Whole song

Interactive

by Busted
7,747 views 18 this week
no commentswrite comment
1 2 3 4 5
x 10
add to favorites
×
Save as Personal and add changes to this tab that will be seen only by you. Learn more ›
×
You can save this tab as Personal to edit and correct it or add notes. All changes will be seen only by you. Learn more »
launch autoscroll
font size
0
reset
how to read this tab
guitar tuner
edit
Autoscroll
slow
fast
+/-
esc
set tempo
stop
Author
-------------------------------------------------------------------------------
                             Air Hostess - Busted
-------------------------------------------------------------------------------
Tabbed by:Connor Smith
E-mail:connorbetts-1995@hotmail.co.uk

Tuning:Standard

Here's a link to me playing, it might help with the learning process
https://www.youtube.com/watch?v=JD8FIaG3QB4

Intro Guitar 1

e|---------------------------------------------------------------------------|
B|---------------------------------------------------------------------------|
G|---------------------------------------------------------------------------|
D|-0-0-2-0-0-0-2-0-0-0-2-0-2-4-2-0-------------------------------------------|
A|---------------------------------------------------------------------------|
E|---------------------------------------------------------------------------|x2

Intro guitar 2

e|---------------------------------------------------------------------------|
B|---------------------------------------------------------------------------|
G|--7--7--7-7-7-7--7-7--7-7-7-7----------------------------------------------|
D|--7--7--7-7-7-7--7-7--7-7-7-7----7--7--7-7-7-7--7-7--7-7-7-7---------------|
A|--5--5--5-5-5-5--5-5--5-5-5-5----7--7--7-7-7-7--7-7--7-7-7-7---------------|
E|---------------------------------5--5--5-5-5-5--5-5--5-5-5-5---------------|

e|---------------------------------------------------------------------------|
B|---------------------------------------------------------------------------|
G|---------------------------------------------------------------------------|
D|--2--2--2-2-2-2--2-2--2--4--5--5--5-5-5-5--5-5--5-5-5-5--------------------|
A|--2--2--2-2-2-2--2-2--2--4--5--5--5-5-5-5--5-5--5-5-5-5--------------------|
E|--0--0--0-0-0-0--0-0--0--2--3--3--3-3-3-3--3-3--3-3-3-3--------------------|

Intro guitar 1

e|---------------------------------------------------------------------------|
B|---------------------------------------------------------------------------|
G|--7-7-9-7-7-7-9-7-7-7-9-7-9-11-9-7-----------------------------------------|
D|---------------------------------------------------------------------------|
A|---------------------------------------------------------------------------|
E|---------------------------------------------------------------------------|x4

Verse guitar 1

e|---------------------------------------------------------------------------|
B|--------------------------------------17----17----17---17----17----17------|
G|-14----14----14---14----14--14----------14----14----14---14----14----14----|
D|---16----16----16---16----16---16---------16----16---------16----16--------|
A|-----17----17---------17----17---------------------------------------------|
E|---------------------------------------------------------------------------|

e|---------------------------------------------------------------------------|
B|---------------------------------------------------------------------------|
G|-14----14----14--14----14----14--------------------------------------------|
D|---16----16----16--16----16----16----16----16----16----16----16------------|
A|-----17----17--------17----17----------1717--1717--1717--1717--1717--------|
E|---------------------------------------------------------------------------|x2

Bridge Guitar 2

   pm    pm     pm       pm        pm       pm      
e|---------------------------------------------------------------------------|
B|---------------------------------------------------------------------------|
G|---------------7-----------------------------------------------------------|
D|-2-----5-------7--------7--------2--------5-------7------------------------|
A|-2x16--5x16----5x16-----7x16-----2x16-----5x16----7x9----------------------|
E|-0-----3----------------5--------0--------3-------5------------------------|

Bridge guitar 1


e|-0~----3~------5~-------5~-------0~-------3~------5~-----------------------|
B|-0~----3~------5~-------5~-------0~-------3~------5~-----------------------|
G|-2~----0~------2~-------4~-------2~-------0~------2~-----------------------|
D|---------------------------------------------------------------------------|
A|---------------------------------------------------------------------------|
E|---------------------------------------------------------------------------|

Chorus guitar 2

e|---------------------------------------------------------------------------|
B|---------------------------------------------------------------------------|
G|--7--7--7-7-7-7--7-7--7-7-7-7----------------------------------------------|
D|--7--7--7-7-7-7--7-7--7-7-7-7----7--7--7-7-7-7--7-7--7-7-7-7---------------|
A|--5--5--5-5-5-5--5-5--5-5-5-5----7--7--7-7-7-7--7-7--7-7-7-7---------------|
E|---------------------------------5--5--5-5-5-5--5-5--5-5-5-5---------------|

e|-----0---------------------------------------------------------------------|
B|-----0---------------------------------------------------------------------|
G|---------------------------------------------------------------------------|
D|--2--2--2-2-2-2--2-2--2--4--5--5--5-5-5-5--5-5--5-5-5-5--------------------|
A|--2--2--2-2-2-2--2-2--2--4--5--5--5-5-5-5--5-5--5-5-5-5--------------------|
E|--0--0--0-0-0-0--0-0--0--2--3--3--3-3-3-3--3-3--3-3-3-3--------------------|x2

Chorus Guitar 1

e|---------------------------------------------------------------------------|
B|---------------------------------------------------------------------------|
G|--7-7-9-7-7-7-9-7-7-7-9-7-9-11-9-7-----------------------------------------|
D|---------------------------------------------------------------------------|
A|---------------------------------------------------------------------------|
E|---------------------------------------------------------------------------|x8

Chorus Guitar 2

e|---------------------------------------------------------------------------|
B|---------------------------------------------------------------------------|
G|---------------------------------------------------------------------------|
D|--7----5-5--5-5-5-5--5-5--5-5-5-5------------------------------------------|
A|--7----5-5--5-5-5-5--5-5--5-5-5-5------------------------------------------|
E|--5----3-3--3-3-3-3--3-3--3-3-3-3------------------------------------------|

Verse guitar 1

e|---------------------------------------------------------------------------|
B|--------------------------------------17----17----17---17----17----17------|
G|-14----14----14---14----14--14----------14----14----14---14----14----14----|
D|---16----16----16---16----16---16---------16----16---------16----16--------|
A|-----17----17---------17----17---------------------------------------------|
E|---------------------------------------------------------------------------|

e|---------------------------------------------------------------------------|
B|---------------------------------------------------------------------------|
G|-14----14----14--14----14----14--------------------------------------------|
D|---16----16----16--16----16----16----16----16----16----16----16------------|
A|-----17----17--------17----17----------1717--1717--1717--1717--1717--------|
E|---------------------------------------------------------------------------|x2



Bridge Guitar 2
   pm    pm     pm       pm        pm       pm      
e|---------------------------------------------------------------------------|
B|---------------------------------------------------------------------------|
G|---------------7-----------------------------------------------------------|
D|-2-----5-------7--------7--------2--------5-------7------------------------|
A|-2x16--5x16----5x16-----7x16-----2x16-----5x16----7x9----------------------|
E|-0-----3----------------5--------0--------3-------5------------------------|

Bridge Guitar 1

e|-0~----3~------5~-------5~-------0~-------3~------5~-----------------------|
B|-0~----3~------5~-------5~-------0~-------3~------5~-----------------------|
G|-2~----0~------2~-------4~-------2~-------0~------2~-----------------------|
D|---------------------------------------------------------------------------|
A|---------------------------------------------------------------------------|
E|---------------------------------------------------------------------------|

Chorus Guitar 2

e|---------------------------------------------------------------------------|
B|---------------------------------------------------------------------------|
G|--7--7--7-7-7-7--7-7--7-7-7-7----------------------------------------------|
D|--7--7--7-7-7-7--7-7--7-7-7-7----7--7--7-7-7-7--7-7--7-7-7-7---------------|
A|--5--5--5-5-5-5--5-5--5-5-5-5----7--7--7-7-7-7--7-7--7-7-7-7---------------|
E|---------------------------------5--5--5-5-5-5--5-5--5-5-5-5---------------|

e|-----0---------------------------------------------------------------------|
B|-----0---------------------------------------------------------------------|
G|---------------------------------------------------------------------------|
D|--2--2--2-2-2-2--2-2--2--4--5--5--5-5-5-5--5-5--5-5-5-5--------------------|
A|--2--2--2-2-2-2--2-2--2--4--5--5--5-5-5-5--5-5--5-5-5-5--------------------|
E|--0--0--0-0-0-0--0-0--0--2--3--3--3-3-3-3--3-3--3-3-3-3--------------------|x2

Chorus guitar 1

e|---------------------------------------------------------------------------|
B|---------------------------------------------------------------------------|
G|--7-7-9-7-7-7-9-7-7-7-9-7-9-11-9-7-----------------------------------------|
D|---------------------------------------------------------------------------|
A|---------------------------------------------------------------------------|
E|---------------------------------------------------------------------------|x8

Bridge Guitar 2

e|------------------------------------------------------------------------------------|
B|------------------------------------------------------------------------------------|
G|-7-7--7-7-7-7-----------------------------------------------------------------------|
D|-7-7--7-7-7-7---7-7--7-7-7-7--2-2--2-2-2-2--2-2--2-2-2-2--5-5--5-5-5-5--7-7--7-7-7-7|
A|-5-5--5-5-5-5---7-7--7-7-7-7--2-2--2-2-2-2--2-2--2-2-2-2--5-5--5-5-5-5--7-7--7-7-7-7|
E|----------------5-5--5-5-5-5--0-0--0-0-0-0--0-0--0-0-0-0--3-3--3-3-3-3--5-5--5-5-5-5|

e|--------------------------------------------------------------------------|
B|--------------------------------------------------------------------------|
G|-7-7--7-7-7-7-------------------------------------------------------------|
D|-7-7--7-7-7-7---7-7--7-7-7-7--2-2--2-2-2-2--2-2--2-2-2-2--5-5--5-5-5-5--7-|
A|-5-5--5-5-5-5---7-7--7-7-7-7--2-2--2-2-2-2--2-2--2-2-2-2--5-5--5-5-5-5--7-|
E|----------------5-5--5-5-5-5--0-0--0-0-0-0--0-0--0-0-0-0--3-3--3-3-3-3--5-|

Solo Guitar 1

e|---------12--15--------17-14------12----14----15----14----12-----15----14----12------|
B|-15~-17~---15--15~-----------15-----1515--1515--1515--1515--1515---1515--1515--15--15|
G|-------------------------------------------------------------------------------------|
D|-------------------------------------------------------------------------------------|
A|-------------------------------------------------------------------------------------|
E|-------------------------------------------------------------------------------------| 

Bridge Guitar 2

   pm    pm     pm       pm        pm       pm      
e|---------------------------------------------------------------------------|
B|---------------------------------------------------------------------------|
G|---------------7-----------------------------------------------------------|
D|-2-----5-------7--------7--------2--------5-------7------------------------|
A|-2x16--5x16----5x16-----7x16-----2x16-----5x16----7x9----------------------|
E|-0-----3----------------5--------0--------3-------5------------------------|

Bridge Guitar 1

e|-0~----3~------5~-------5~-------0~-------3~------5~-----------------------|
B|-0~----3~------5~-------5~-------0~-------3~------5~-----------------------|
G|-2~----0~------2~-------4~-------2~-------0~------2~-----------------------|
D|---------------------------------------------------------------------------|
A|---------------------------------------------------------------------------|
E|---------------------------------------------------------------------------|

Chorus Guitar 2

e|---------------------------------------------------------------------------|
B|---------------------------------------------------------------------------|
G|--7--7--7-7-7-7--7-7--7-7-7-7----------------------------------------------|
D|--7--7--7-7-7-7--7-7--7-7-7-7----7--7--7-7-7-7--7-7--7-7-7-7---------------|
A|--5--5--5-5-5-5--5-5--5-5-5-5----7--7--7-7-7-7--7-7--7-7-7-7---------------|
E|---------------------------------5--5--5-5-5-5--5-5--5-5-5-5---------------|

e|-----0---------------------------------------------------------------------|
B|-----0---------------------------------------------------------------------|
G|---------------------------------------------------------------------------|
D|--2--2--2-2-2-2--2-2--2--4--5--5--5-5-5-5--5-5--5-5-5-5--------------------|
A|--2--2--2-2-2-2--2-2--2--4--5--5--5-5-5-5--5-5--5-5-5-5--------------------|
E|--0--0--0-0-0-0--0-0--0--2--3--3--3-3-3-3--3-3--3-3-3-3--------------------|x2

Chorus Guitar 1

e|---------------------------------------------------------------------------|
B|---------------------------------------------------------------------------|
G|--7-7-9-7-7-7-9-7-7-7-9-7-9-11-9-7-----------------------------------------|
D|---------------------------------------------------------------------------|
A|---------------------------------------------------------------------------|
E|---------------------------------------------------------------------------|x8

Chorus Guitar 3

e|---------------------------------------------------------------------------|
B|---------------------------------------------------------------------------|
G|--12-11---------12-11---------12-11-----------12-11------------------------|
D|--------12------------12------------12--------------12-14------------------|
A|---------------------------------------------------------------------------|
E|---------------------------------------------------------------------------|x2

e|---------------------------------------------------------------------------|
B|---------------------------------------------------------------------------|
G|---------------------------------------------------------------------------|
D|--7----5-5--5-5-5-5--5-5--5-5-5-5------------------------------------------|
A|--7----5-5--5-5-5-5--5-5--5-5-5-5------------------------------------------|
E|--5----3-3--3-3-3-3--3-3--3-3-3-3------------------------------------------|

Outro Guitar 2

e|------------------------------------------------------------------------------------|
B|------------------------------------------------------------------------------------|
G|-7-7--7-7-7-7-----------------------------------------------------------------------|
D|-7-7--7-7-7-7---7-7--7-7-7-7--2-2--2-2-2-2--2-2--2-2-2-2--5-5--5-5-5-5--7-7--7-7-7-7|
A|-5-5--5-5-5-5---7-7--7-7-7-7--2-2--2-2-2-2--2-2--2-2-2-2--5-5--5-5-5-5--7-7--7-7-7-7|
E|----------------5-5--5-5-5-5--0-0--0-0-0-0--0-0--0-0-0-0--3-3--3-3-3-3--5-5--5-5-5-5|

e|------------------------------------------------------------------------------------|
B|------------------------------------------------------------------------------------|
G|-7-7--7-7-7-7-----------------------------------------------------------------------|
D|-7-7--7-7-7-7---7-7--7-7-7-7--2-2--2-2-2-2--2-2--2-2-2-2--5-5--5-5-5-5--7-7--7-7-7-7|
A|-5-5--5-5-5-5---7-7--7-7-7-7--2-2--2-2-2-2--2-2--2-2-2-2--5-5--5-5-5-5--7-7--7-7-7-7|
E|----------------5-5--5-5-5-5--0-0--0-0-0-0--0-0--0-0-0-0--3-3--3-3-3-3--5-5--5-5-5-5|

Outro Guitar 1


e|--17-14--------17-14---------17-14--------17-14----------------------------|
B|--------17-----------17------------17-----------17-------------------------|
G|---------------------------------------------------------------------------|
D|---------------------------------------------------------------------------|
A|---------------------------------------------------------------------------|
E|---------------------------------------------------------------------------| x2

Outro Guitar 3

e|---------------------------------------------------------------------------|
B|---------------------------------------------------------------------------|
G|--7-7-9-7-7-7-9-7-7-7-9-7-9-11-9-7-----------------------------------------|
D|---------------------------------------------------------------------------|
A|---------------------------------------------------------------------------|
E|---------------------------------------------------------------------------|x8

Outro Guitar 2

e|---------------------------------------------------------------------------|
B|---------------------------------------------------------------------------|
G|--7~-\\\\\\\\\\\\\\\\\\---7------------------------------------------------|
D|--7~-\\\\\\\\\\\\\\\\\\---7------------------------------------------------|
A|--5~-\\\\\\\\\\\\\\\\\\---5------------------------------------------------|
E|-----\\\\\\\\\\\\\\\\\\----------------------------------------------------|


************************************

| /   slide up
| \   slide down
| h   hammer-on
| p   pull-off
| ~   vibrato
| +   harmonic
| x   Mute note
| b   Bend
| pb  Pre-bend
| br  Bend release
| pbr Pre-bend release
| brb Bend release bend

************************************

            
            
Suggest correction
Creating personal tab
Creating personal tab
You can edit any tab online and save it as your Personal.

You can edit, replace or remove any tab part or add personal notes – all changes will be seen only by you.

Personal tabs can be accessed anytime from any device, even offline.
Learn more »
comments
print report bad tab
guest
You may want to rate the tab now too:
select rating
Wanna post a correction for this tab? Suggest correction