Oops, an error
Loading. Please wait.

Crashed The Wedding Tab

version 1
version 1

Acoustic

Whole song

Interactive

1,075 views 1 this week
no commentswrite comment
1 2 3 4 5
please rate
add to favorites
launch autoscroll
font size
0
reset
how to read this tab
guitar tuner
Autoscroll
slow
fast
+/-
esc
set tempo
stop
Help us to improve Ultimate-Guitar.com Take our survey!
×
Author
Difficulty
Capo
novice
1st fret
Busted - Crashed the wedding http://www.youtube.com/watch?v=3u5BsnrnQu0 
Tabbed by Roooger - Robin.G-92@hotmail.com
PLEASE COMMENT! 
Capo on 1:th fret
"(...)"  is what I call the chords in the tab...

     G (G)      Cadd9 (C)  D (D)      Em7 (Em)  Dsus4 (D+)   Am   G (G+)
e|---3----------3----------2----------3---------3------------3----3---------| 
B|---3----------3----------3----------3---------3------------3----3---------|
G|---0----------0----------2----------0---------2------------0----0---------| 
D|---0----------2----------0----------2---------0------------2----0---------| 
A|---2----------3---------(0)---------2---------0----------0----2-----------| 
E|---3----------0----------X----------0---------X---------------------------|

 Intro: 
   G                         C                      D                 C 
e|---5-3---2---2h3p2---------5-3---2---2h3----------5-3---2----2h3~~~---3---| 
B|--------------------------------------------------------------------------|
G|-3-----3---3-------5-3~~~------3---3-----5--3~~~------3----3--------3---3-|
D|--------------------------------------------------------------------x-x-x-|
A|--------------------------------------------------------------------------|
E|----------------------------------The-last-3-notes-is-played-4-times-each-|

 "Easy thing" 
e|-3---3---2---2---3---3---2---2--------------------------------------------|
B|---3---3---3---3---3---3---3---3------------------------------------------|
G|--------------------------------------------------------------------------|
D|--------------------------------------------------------------------------|
A|--------------------------------------------------------------------------|
E|--------------------------------------------------------------------------|


 Verse: 
G                                    C
 I'm so rushed off my feet, (I'm) looking for Gordon street
D                            Em                    C
 So much I need to say, I'm sorry that its on her wedding day
G                          C
 Coz she's so right for me, her daddy disagrees
D                      Em                 C
 He's always hated me, coz I never got, a j-o-b... 
D+               C 
  Coz she's mine 


 Chorus: 
          G                              C
And I'm glad i crashed the wedding, it's better than regretting
              Em                    D
I could have been a loser kid, and ran away and hid 
              C                     D  
But it's the best thing I ever did 
      G
Coz true love lasts forever
     C                          Am          Em
And now we're back together, as if he never met her 
            C                               G   D   C   C 
So looking back, I'm glad i crashed the wedding... 

 Verse 2: 
G                                 C 
 The neighbours spread the word,(damn) my mum cried when she heard
D                           Em                 C 
 I stole my girl away, from everybody gathered there that day...

D+             C 
  Just in time 

 
 Chorus: 
          G                              C
And i'm glad i crashed the wedding, It's better than regretting
              Em                    D
I could have been a loser kid, and ran away and hid 
              C                     D
But it's the best thing I ever did 
      G
Coz true love lasts forever 
     C                          Am          Em
And now we're back together, as if he never met her 
            C                             G...
So looking back, I'm glad i crashed the wedding... 


 Bridge: 
...G             Am
Don't waste time being 
Em                        C
mad at me for taking her away, coz 
                           Am
Anyway she didn't want to stay. 
   Em                        C     C~~~
So please believe me when I say 


 Chorus with "Easy thing": 
                            G         D              C         C                        
She's glad I crashed the wedding, It's better than regretting... 
     Em                         D
The ring she got was lame, she couldn't take the pain, 
     C                              D 
She didn't want a silly second name 
      G 
Coz true love lasts forever 
     C                            Am               Em
And now we're back together, you might as well forget her, 
           C...
And walk away 

 Chorus again:
...C                      G 
She's glad I crashed the wedding...(We're back together) 
                   C 
It's better than regretting... (it's better than regretting) 
     Em                         D
The ring she got was lame, she couldn't take the pain, 
     C                              D 
She didn't want a silly second name (no no no no) 
      G
Coz true love lasts forever, (true love lasts)
     C                            Am               Em
And now we're back together, you might as well forget her, 
           C...
And walk away 
C...                       G~~~~~~~ 
She's glad I crashed the wedding...


Enjoy the tab! :) PLEASE COMMENT!
Suggest correction
What's this?
You can suggest a correction to this tab. Community and Mods will review your correction and vote to approve or reject it.
comments
We did not receive enough feedback on this tab! Please rate:
print report bad tab
1 2 3 4 5
guest
You may want to rate the tab now too:
select rating
Please do not post tabs as comments. Select "correction" instead!