Oops, an error
Loading. Please wait.

Easy Tab

127 views 27 this week
no commentswrite comment
1 2 3 4 5
1 last vote to show rating
add to favorites
launch autoscroll
font size
0
reset
how to read this tab
guitar tuner
Autoscroll
slow
fast
+/-
esc
set tempo
stop
Help us to improve Ultimate-Guitar.com Take our survey!
×
Author
About this tab version
Original song: https://www.youtube.com/watch?v=58t6kfAy6W0 This song is a great song to learn, the majority of the song is very mellow. It is also a very simple tab to get to grips with. Overall it is a really nice tab to play as it has such a nice sound. Was this info helpful? Yes No
Artist: Busted
Song: Easy
Album: Night Driver
Tuning: Standard
Capo: No Capo needed

Pre-Chorus:
e ----------------------------------------------------------------------------------
B ------2---2---0--------0-0---0-2-0------------2---2---0--------0-0---0-2-3-2------
G -----------------------------------2------------------------------------------2---
D ----2---2---2------2-2-----2----------------2---2---2------2-2-----2--------------
A ----------------------------------------------------------------------------------
E ----------------------------------------------------------------------------------


Chorus:
e ----5-4-5-4------------------2-0-0-2-0--------------------------------------------
B ------------2-0---2--0-----------------2-0----2-0---------------------------------
G ----------------2------2-------------------2------2-------------------------------
D ----------------------------------------------------------------------------------
A ----------------------------------------------------------------------------------
E ----------------------------------------------------------------------------------
Suggest correction
Give kudos to tab author, rate the tab!
1 2 3 4 5
comments
print report bad tab
guest
You may want to rate the tab now too:
select rating
Wanna post a correction for this tab? Suggest correction