Oops, an error
Loading. Please wait.

Falling For You bass

version 1
version 1

Whole song

Interactive

by Busted
819 views 1 this week
no commentswrite comment
1 2 3 4 5
2 more votes to show rating
add to favorites
×
Save as Personal and add changes to this tab that will be seen only by you. Learn more ›
×
You can save this tab as Personal to edit and correct it or add notes. All changes will be seen only by you. Learn more »
launch autoscroll
font size
0
reset
guitar tuner
edit
Autoscroll
slow
fast
+/-
esc
set tempo
stop
-----------------------------------------------------------------------------
                        Falling For You - Busted
-----------------------------------------------------------------------------
Tabbed by: Jim-BlenderBR
 - Please rate and send me your feedback -  

 - Intro

G|-------------------------------|
D|-------------------------------|
A|---0--------5--5/12--------5---|   
E|---------0--------------0------|

-  Verse 1
(Semesters coming soon so i would like to mention...)

G|---------------------------------|
D|---------------------------------|
A|---0x0x0x0----5555--7777---------|
E|---------------------------------| x2

(Next week my mum's away so now my futures brightened...)

G|---------------------------------|
D|---------------------------------|
A|-------------5555-7777-----------|
E|---2222-0000---------------------|

G|---------------------------------|
D|---------------------------------|
A|-------------5555-7--------------|
E|---2222-0000---------------------|

-  Chorus
(I'm, I'm really falling for you...)

G|------------------------------------------------|
D|------------------------------------------------|
A|-0000--2222--55555555--0000--2222--555555-7532--|
E|------------------------------------------------|

(What have you done to me now? I just can't sleep at night...)

G|--------------------------|
D|--------------------------|
A|------------5555-7777-----|
E|--222--000----------------| x2

-  Post-Chorus

G|---------------------------|
D|---------------------------|
A|-00000-22222-55555-77777---|
E|---------------------------| x2

-  Verse 2
(You showed up at my door just like in a teen movie...)

G|---------------------------------|
D|---------------------------------|
A|---0x0x0x0x----5555--7777--------|
E|---------------------------------| x2

(I guess she found it funny when i said "hello honey"...)

G|---------------------------------|
D|---------------------------------|
A|-------------5555-7777-----------|
E|---2222-0000---------------------|

G|---------------------------------|
D|---------------------------------|
A|-------------5555-7--------------|
E|---2222-0000---------------------|

-  Chorus
(I'm, I'm really falling for you...)

G|------------------------------------------------|
D|------------------------------------------------|
A|-0000--2222--55555555--0000--2222--555555-7532--|
E|------------------------------------------------|

(What have you done to me now? I just can't sleep at night...)

G|--------------------------|
D|--------------------------|
A|------------5555-7777-----|
E|--222--000----------------| x2

Post-Chorus

G|-------------------------------------------------------|
D|-------------------------------------------------------|
A|-0000--2222--5555--7532--0000--2222--5555--17171717*---|
E|-------------------------------------------------------| 
* 17

 -  Brigde
(Taking over my life but i dont seem to mind...)

G|----------------------------|
D|----------------------------|
A|--------------55555555------|
E|--2222--0000----------------|

G|--------------------------------------------|
D|--------------------------------------------|
A|--------------55555555--2222-0000--55555555-|
E|--2222--0000--------------------------------|

-  Chorus
(I'm, I'm really falling for you...)

G|---------------------------------------|
D|---------------------------------------|
A|--0-5/7-752-3-7532--00-5/7-752-3-7532--|   
E|---------------------------------------|

(What have you done to me now? I just can't sleep at night...)

G|------------------------|
D|------------------------|
A|----------5555-7777-----|
E|--22--00----------------| x2

Post-Chorus

G|------------------------|
D|------------------------|
A|-0000--2222--5555--7777-|
E|------------------------| x2

-  Chorus
(I'm, I'm really falling for you...)

G|--------------------------------------------------------|
D|--------------------------------------------------------|
A|-0000--2222--555555-7532--0000--2222--555555-17171717*--|
E|--------------------------------------------------------| 
* 17

(What have you done to me now? I just can't sleep at night...)
G|-------------------------------------------------------------|
D|-------------------------------------------------------------|
A|------------5555--7777-------------5555--75320---------------|
E|--222--000---------------222--000----------------------------|

            
            
Suggest correction
Creating personal tab
Creating personal tab
You can edit any tab online and save it as your Personal.

You can edit, replace or remove any tab part or add personal notes – all changes will be seen only by you.

Personal tabs can be accessed anytime from any device, even offline.
Learn more »
Give kudos to tab author, rate the tab!
1 2 3 4 5
comments
print report bad tab
guest
You may want to rate the tab now too:
select rating
Wanna post a correction for this tab? Suggest correction