Oops, an error
Loading. Please wait.

I Will Break Your Heart Bass Tab

64 views 45 this week
no commentswrite comment
1 2 3 4 5
3 more votes to show rating
add to favorites
launch autoscroll
font size
0
reset
guitar tuner
Autoscroll
slow
fast
+/-
esc
set tempo
stop
Help us to improve Ultimate-Guitar.com Take our survey!
×
Author
Difficulty
intermediate
Intro
G|---------------------------------------|
D|-7-7-7-7-7---7-7-7---7-7-7-7-7---7-7-7-|
A|---------------------------------------|
E|---------------------------------------|

G|--------------------------------------------|
D|------------------------------------------7-|
A|-5-5-5-5-5---5-5-5---5-5-5-5-5---5-5--7h9---|
E|--------------------------------------------|


Verse 1 (x2)
G|---------------------------------------|
D|-7-7-7-7-7---7-7-7---7-7-7-7-7---7-7-7-|
A|---------------------------------------|
E|---------------------------------------|

G|---------------------------------------|
D|---------------------------------------|
A|-5-5-5-5-5---5-5-5---5-5-5-5-5---5-5-5-|
E|---------------------------------------|


Pre Chorus 1
G|-------------------------------------|
D|-------------------------------------|
A|-4-4-4-4-4--4-4-4--------------------|
E|--------------------2-2-2-2-2--2\4\5-|

G|---------------------------------------|
D|---------------------------------------|
A|-4-4-4-4-4--4-4-4----------------------|
E|--------------------2-2-2-2-2---2-0-2--|

G|-------------------------------------|
D|-------------------------------------|
A|-5-5-5-5-5--5-5-5---7-7-7-7-7--7-7-7-|
E|-------------------------------------|


Chorus 1
G|--------------------------------------------|
D|-7-7-7-7-7---7-7-7---7-7-7-7-7---7-7--------|
A|------------------------------------------4-|
E|--------------------------------------5-7---|

G|---------------------------------------|
D|---------------------------------------|
A|-5-5-5-5-5---5-5-5---5-5-5-5-5---5-5-5-|
E|---------------------------------------|

G|------------------------------------------|
D|-7-7-7-7-7---7-7-7---7-7-7-7-7---7--------|
A|------------------------------------------|
E|------------------------------------5\4\2-|

G|---------------------------------------|
D|---------------------------------------|
A|-5-5-5-5-5---5-5-5---5-5-5-5-5---5-5-5-|
E|---------------------------------------|

G|--------------------------------------|
D|--------------------------------------|
A|--------------------------------------|
E|-2-2-2-2-2---2-2-2---0-0-0-0-0--0-0-0-|


Pre Verse
G|---------------------------------------|
D|-7-7-7-7-7---7-7-7---7-7-7-7-7---7-7-7-|
A|---------------------------------------|
E|---------------------------------------|

G|-------------------------------------------|
D|-----------------------------------7-7p6---|
A|-5-5-5-5-5---5-5-5---5-5-5-5-5---5-------7-|
E|-------------------------------------------|

Verse 2
If you want...
G|---------------------------------------|
D|-7-7-7-7-7---7-7-7---7-7-7-7-7---7-7-7-|
A|---------------------------------------|
E|---------------------------------------|

Yeah they don't need...
G|--------------------------------------------|
D|------------------------------------------7-|
A|-5-5-5-5-5---5-5-5---5-5-5-5-5---5-5--7h9---|
E|--------------------------------------------|

We'll spend the summer...
G|-----------------------------------------|
D|-7-7-7-7-7---7-7-7---7-7-7-7-7---7-7-6---|
A|---------------------------------------7-|
E|-----------------------------------------|

And when it falls apart....
G|-------------------------------------------|
D|-----------------------------------7-7p6---|
A|-5-5-5-5-5---5-5-5---5-5-5-5-5---5-------7-|
E|-------------------------------------------|


Pre Chorus 2
G|--------------------------------------|
D|----------------2\3--4-4-4-4-4--------|
A|-4-4-4-4-4--4-4-----------------------|
E|--------------------------------4-5-7-|

G|-------------------------------------|
D|--------------------4-4-4-4-4--------|
A|-4-4-4-4-4--4-4-4--------------------|
E|-------------------------------2-0-2-|

G|-------------------------------9-9-9-9-9-9-9-9-|
D|-----------------------------------------------|
A|-5-5-5-5-5--5-5-5---7-7-7-7-7------------------|
E|-----------------------------------------------|


Chorus  2
G|--------------------------------------------|
D|-7-7-7-7-7---7-7-7---7-7-7-7-7---7-7--------|
A|------------------------------------------4-|
E|--------------------------------------5-7---|

G|--------------------------------------------|
D|------------------------------------------7-|
A|-5-5-5-5-5---5-5-5---5-5-5-5-5---5-5--7h9---|
E|--------------------------------------------|

G|------------------------------------------|
D|-7-7-7-7-7---7-7-7---7-7-7-7-7---7--------|
A|------------------------------------------|
E|------------------------------------5\4\2-|

G|---------------------------------------|
D|---------------------------------------|
A|-5-5-5-5-5---5-5-5---5-5-5-5-5---5-5-5-|
E|---------------------------------------|

G|--------------------------------------|
D|--------------------------------------|
A|--------------------------------------|
E|-2-2-2-2-2---2-2-2---0-0-0-0-0--0-0-0-|


Sax Solo
G|---------------------------------------|
D|-7-7-7-7-7---7-7-7---7-7-7-7-7---7-7-7-|
A|---------------------------------------|
E|---------------------------------------|

G|-----------------------------------------|
D|-----------------------------------7-6---|
A|-5-5-5-5-5---5-5-5---5-5-5-5-5---5-----7-|
E|-----------------------------------------|

G|---------------------------------------|
D|-7-7-7-7-7---7-7-7---7-7-7-7-7---7-7-7-|
A|---------------------------------------|
E|---------------------------------------|

G|-------------------------------------------|
D|-----------------------------------7-7p6---|
A|-5-5-5-5-5---5-5-5---5-5-5-5-5---5-------7-|
E|-------------------------------------------|


Pre Chorus 3
G|-------------------------------------|
D|-------------------------------------|
A|-4-4-4-4-4--4-4-4--------------------|
E|--------------------2-2-2-2-2--2\4\5-|

G|---------------------------------------|
D|---------------------------------------|
A|-4-4-4-4-4--4-4-4----------------------|
E|--------------------2-2-2-2-2---2-0-2--|

G|-------------------------------------|
D|-------------------------------------|
A|-5-5-5-5-5--5-5-5---7-7-7-7-7--7-7-7-|
E|-------------------------------------|


Chorus (Just Bass)
G|--------------------------------------------|
D|-7-7-7-7-7---7-7-7---7-7-7-7-7---7-7--------|
A|------------------------------------------4-|
E|--------------------------------------5-7---|

G|----------------------------------------|
D|----------------------------------------|
A|-5-5-5-5-5---5-5-5---55-5-5-5-5---5-5-5-|
E|----------------------------------------|

G|------------------------------------------|
D|-7-7-7-7-7---7-7-7---7-7-7-7-7---7--------|
A|------------------------------------------|
E|------------------------------------5\4\2-|

G|-------------------------------|
D|-------------------------------|
A|-5-5-5-5-5---5-5-5---5-5-5-5-5-|
E|-------------------------------|


Last Chorus
G|--------------------------------------------|
D|-7-7-7-7-7---7-7-7---7-7-7-7-7---7-7--------|
A|------------------------------------------4-|
E|--------------------------------------5-7---|

G|------------------------------------------|
D|------------------------------------------|
A|-5-5-5-5-5---5-5-5---5-5-5-5-5---5-5-5-5--|
E|------------------------------------------|

G|------------------------------------------|
D|-7-7-7-7-7---7-7-7---7-7-7-7-7---7--------|
A|------------------------------------------|
E|------------------------------------5\4\2-|

G|---------------------------------------|
D|---------------------------------------|
A|-5-5-5-5-5---5-5-5---5-5-5-5-5---5-5-5-|
E|---------------------------------------|

G|--------------------------------------|
D|--------------------------------------|
A|--------------------------------------|
E|-2-2-2-2-2---2-2-2---0-0-0-0-0--0-0-0-|


Outro
G|---------------------------------------|
D|-7-7-7-7-7---7-7-7---7-7-7-7-7---7-7-7-|
A|---------------------------------------|
E|---------------------------------------|

G|-----------------------|
D|-7-7-7-7-7---7-7-7---7-|
A|-----------------------|
E|-----------------------|


************************************

| h  Hammer-on
| p  Pull-off
| \  Slide down
| /  Slide up

************************************

Suggest correction
Give kudos to tab author, rate the tab!
1 2 3 4 5
comments
print report bad tab
guest
You may want to rate the tab now too:
select rating
Wanna post a correction for this tab? Suggest correction