Oops, an error
Loading. Please wait.

Meet You There Tab

version 1
version 1

Whole song

Interactive

by Busted
18,448 views 24 this week
9 commentsread comments
1 2 3 4 5
x 12
add to favorites
launch autoscroll
font size
0
reset
how to read this tab
guitar tuner
×
Best way to learn
"Meet You There"
Autoscroll
slow
fast
+/-
esc
set tempo
stop
Author
Difficulty
Capo
novice
1st fret
----------------------------------------------------------------------------
                        Meet You There - Busted
----------------------------------------------------------------------------
Tabbed by: Shiruzu
Email: letaldj@libero.it

Tuning: Standard

Well..this is my first tab so..sorry if there's any mistake :p
Capo on 1st fret

     G          Em           C           D
e|---3-----------3-----------3-----------3---------------------------------|
B|---3-----------3-----------3-----------2---------------------------------|
G|---0-----------0-----------0-----------3---------------------------------|
D|---0-----------2-----------2-----------0---------------------------------|
A|---2-----------2-----------3-----------0---------------------------------|
E|---3-----------0-----------0-----------X---------------------------------|


Intro:
G, Em, C, D x2 (the first time let ring all the chords)

Verse
    G      Em
I'm waiting
Em              C                D
For the perfect time to call you back
D               G     Em
Cos' I remember saying
Em                   C
Don't wanna know the truth
             D
Can't handle that

      Em
And I try to (and I try to...)
       C
Just forget you (just forget you...)
      G
But I don't know how
   D(let ring)
If only I knew

Chorus
     G
It's written all over your face
Em
Such a painful thing to waste
D           C
Tell me now where do we go?
G
Now the future's not so clear
  Em
I can't believe we've ended here
D (let ring)
Where's the world that doesn't care?
C (let ring)             G
Maybe I could meet you there

Em, C, D

Verse
    
G       Em
I'm sorry
                 C                D
If I slagged you down, I meant no harm
                 G      Em
When I heard the stories
                     C
Said things I didn't mean
                   D
Should have stayed calm

    Em
But sadly
        C
You got angry
       G
And it breaks my heart
       D(let ring)
You're so mad at me

Chorus
     G
It's written all over your face
Em
Such a painful thing to waste
D           C
Tell me now where do we go?
G
Now the future's not so clear
  Em
I can't believe we've ended here
D (let ring)
Where's the world that doesn't care?
C (let ring)             G
Maybe I could meet you there
G                       C
Maybe I could meet you there
D                       G
Maybe I could meet you there

Bridge
G, Em, D, C x2

If u want u can play this little solo..in the song it's played on piano
      G           Em              D             C                       
e|-------------------------------------------------------------------------|
B|----14-13-------14-13----------------------------------------------------|
G|---------13----------13---------12-13------------------------------------|
D|-------------------------------------13------------13--------------------|
A|----------------------------------------------11-13----------------------|
E|-------------------------------------------------------------------------|
   Play it twice

Chorus
     G
It's written all over your face
Em
Such a painful thing to waste
D           C
Tell me now where do we go?
G
Now the future's not so clear
  Em
I can't believe we've ended here
D (let ring)
Where's the world that doesn't care?
C (let ring)            G
Maybe I could meet you there
C                       G
Maybe I could meet you there
D                        G
Maybe I should meet you there


Hope it's correct! Enjoy!
Suggest correction
comments
print report bad tab
9 comments total. Showing first comments.
0 reply
Mcfly_182 10 Jul 10, 2006 11:09 AM

Good Tab! Thanks! Im not sure about the C though, its should just be a normal C not a Caddd9! C = x32010, E to e! Thanks again!

0 reply
adam_mrx 10 Jul 28, 2006 02:30 PM

good tab. is it me or is the last bit of the piano a string to low? the 11, 13, 13 should be on d string, d string and g string i think

0 reply
smyth75 103 Aug 12, 2006 12:29 PM

G Em D C
e|-------------------------------------------------------------------------|
B|----14-13-------14-13----------------------------------------------------|
G|---------13----------13---------12-13---------------------13---------------|
D|-------------------------------------13--------11----13--------------------|
A|---------------------------------------------------------------------|
that shud be the solo

E|-------------------------------------------------------------------------|

guest
You may want to rate the tab now too:
select rating
Wanna post a correction for this tab? Suggest correction