Oops, an error
Loading. Please wait.

On What Youre On Bass Tab

124 views 39 this week
no commentswrite comment
1 2 3 4 5
3 more votes to show rating
add to favorites
launch autoscroll
font size
0
reset
guitar tuner
Autoscroll
slow
fast
+/-
esc
set tempo
stop
Help us to improve Ultimate-Guitar.com Take our survey!
×
Author
[Main Riff]
(Intro/Verse/Chorus)
G|---------------------------------|
D|---------------------------------|
A|---------------------------------|
E|-8-8--10--12\\-12-0-12--12p10h12-|

G|-------------------------|
D|-----------------------5-|
A|-----------------7p5h7---|
E|-8-8--10\--5-555---------|

[Chorus]
(Lead In)
G|-------------------------|
D|-------------------------|
A|-------------------------|
E|-8-8--10\--5~~~---5/15\\-|

[Bridge]
(Lead In)
G|---------------------|
D|---------------------|
A|---------------------|
E|-8-8--10\--5~~~(\6/)-|

[Bridge]
G|------------------------------------------|
D|---9---9--------14----14--------14---14---|
A|------------------------------------------|
E|-7---7---7---12----12----12--12---12---12-|

G|--------------------------------|
D|--10---10------5---5-------5----|
A|--------------------------------|
E|-8---8---8---3---3---3--3---3/5-|

G|-------------------------------------------------------------|
D|---9---9-----------14-----14--14h16\17/16-14-12-10~~~--------|
A|-------------------------------------------------------------|
E|-7---7---7---10\12----12-------------------------------15\\\-|


************************************

| h  Hammer-on
| p  Pull-off
| \  Slide down
| /  Slide up
| ~  Vibrato

************************************
Suggest correction
Give kudos to tab author, rate the tab!
1 2 3 4 5
comments
print report bad tab
guest
You may want to rate the tab now too:
select rating
Wanna post a correction for this tab? Suggest correction