Oops, an error
Loading. Please wait.

One Of A Kind Bass Tab

181 views 36 this week
no commentswrite comment
1 2 3 4 5
3 more votes to show rating
add to favorites
launch autoscroll
font size
0
reset
guitar tuner
Autoscroll
slow
fast
+/-
esc
set tempo
stop
Help us to improve Ultimate-Guitar.com Take our survey!
×
Author
Difficulty
intermediate
About this tab version
As similar as the original as possible, some of the slides are inspired by the way Matt (Busted's bass player) has played the song live. Picking is the preferred technique for this song. Was this info helpful? Yes No
Bass Tab for the album version of 'One of a Kind' from Busted's new album 'Night Driver'

INTRO 0:13
G|----------------------------------------------------------------------------------------------|
D|----------------------------------------------------------------------------------------------|
A|-3/\-8-8--8--8-8--8--3-3-0-3h5-5--5--5-5--5--3-3--8-8--8--8-8--8--3-3-0-3h5-5--5--5-5--5--3-3-|
E|----------------------------------------------------------------------------------------------|

VERSE 0:26
G|---------------------------------------------|
D|---------------------------------------------|
A|-8-8--8--8-8--8--3-3-0-3h5-5--5--5-5--5--3-3-|  x2
E|---------------------------------------------|

BRIDGE 0:40
G|-----------------------------------------5---------------------------------------------|
D|-------------------------------------5h7---7-------------------------------------------|
A|-1-1--1--1-1--1--5-5--3-3--3--3-3--3----------1-1--1--1-1--1--5-5--3-3--3--3-3--3--/\8-|
E|---------------------------------------------------------------------------------------|

CHORUS 0:52
G|---------------------------------------------|
D|---------------------------------------------|
A|-8-8--8--8-8--8--3-3-0-3h5-5--5--5-5--5--3-3-| x4 
E|---------------------------------------------|

VERSE 1:19
G|---------------------------------------------|
D|---------------------------------------------|
A|-8-8--8--8-8--8--3-3-0-3h5-5--5--5-5--5--3-3-|  x2
E|---------------------------------------------|

BRIDGE 1:32 
G|-----------------------------------------5---------------------------------------------|
D|-------------------------------------5h7---7-------------------------------------------|
A|-1-1--1--1-1--1--5-5--3-3--3--3-3--3----------1-1--1--1-1--1--5-5--3-3--3--3-3--3--/\8-|
E|---------------------------------------------------------------------------------------|

CHORUS 1:45
G|---------------------------------------------|
D|---------------------------------------------|
A|-8-8--8--8-8--8--3-3-0-3h5-5--5--5-5--5--3-3-| x4 
E|---------------------------------------------|

KEYTAR SOLO 2:11
G|---------------------------------------------|
D|---------------------------------------------|
A|-8-8--8--8-8--8--3-3-0-3h5-5--5--5-5--5--3-3-|  x2
E|---------------------------------------------|

2:31
G|-12h14--12h14p12-10h12p12---------------|
D|--------------------------12--------7---|
A|------------------------------/8h10---8-|
E|----------------------------------------|

BRIDGE 2:36
G|-----------------------------------------5---------------------------------------------|
D|-------------------------------------5h7---7-------------------------------------------|
A|-1-1--1--1-1--1--5-5--3-3--3--3-3--3----------1-1--1--1-1--1--5-5--3-3--3--3-3--3--/\8-|
E|---------------------------------------------------------------------------------------|

CHORUS 2:50
G|---------------------------------------------|
D|---------------------------------------------|
A|-8-8--8--8-8--8--3-3-0-3h5-5--5--5-5--5--3-3-| x4 
E|---------------------------------------------|

OUTRO 3:18
G|---------------------------------------------|
D|---------------------------------------------|
A|-8-8--8--8-8--8--3-3-0-3h5-5--5--5-5--5--3-3-| x4 
E|---------------------------------------------|


| /  slide up
| \  slide down
| h  hammer-on
| p  pull-off

Suggest correction
Give kudos to tab author, rate the tab!
1 2 3 4 5
comments
print report bad tab
guest
You may want to rate the tab now too:
select rating
Wanna post a correction for this tab? Suggest correction