Oops, an error
Loading. Please wait.

Whos David bass

version 1
version 1

Whole song

Interactive

by Busted
2,550 views 1 this week
1 commentread comment
1 2 3 4 5
x 3
add to favorites
×
Save as Personal and add changes to this tab that will be seen only by you. Learn more ›
×
You can save this tab as Personal to edit and correct it or add notes. All changes will be seen only by you. Learn more »
launch autoscroll
font size
0
reset
guitar tuner
edit
Autoscroll
slow
fast
+/-
esc
set tempo
stop
Difficulty
I'm pretty sure this is about 90% right I wasnt positive about the second part of the 
soo ummm... ENJOY!!!!!!!!!

Intro/Verse 1
G|------------------|
D|----------7~---9~-|
A|7~---9~-----------|
E|------------------|

Pre-chorus
G|------------------------------------------------------------|
D|------------------------------------------------------------|
A|4444444422222222000000000000222244444444222222220~~~222-2-2-|
E|------------------------------------------------------------|

Chorus
G|----------------------------------------|
D|----------------------------------------|
A|-----2-22-0-00-2-22------2-22-0-00-2-22-|
E|0-00----------------0-00----------------|

G|---6-------------------------------6--------------------|
D|--------------------------------------------------------|
A|444-4444222222220000000000000000444-444422222222-0-0-0~-|
E|--------------------------------------------------------|

Verse2
G|---------------------------------|
D|---------------------------------|
A|77777777222222220000000022222222-
E|---------------------------------

Bridge
G|---------------------------------|
D|---------------------------------|
A|777777772222222200000000--222222-|
E|---------------------------------|

G|--------------------------------------------------|
D|--------------------------------------------------|
A|0000000022222222---0-2-2-2-0000000022222222---0-2-|
E|-----------------0--------------------------0-----|

G|-----------------------------------------------------------------|
D|-----------------------------------------------------------------|
A|7777777722222222000000002222222/777777772222222200000000-2222222-
E|-----------------------------------------------------------------

Last Chorus
G|----------------------------------------|
D|----------------------------------------|
A|7-77-2-22-0-00-2-22-7-77-2-22-0-00-2-22-|
E|----------------------------------------|

G|---6-------------------------------6--------------------|
D|--------------------------------------------------------|
A|444-4444222222220000000000000000444-444422222222-0-2-0~-|
E|--------------------------------------------------------|

Outro
G|---------------------------------|
D|---------------------------------|
A|77777777222222220000000022222222-
E|---------------------------------

End
G|------|
D|------|
A|0/7~~-
E|------

Order:

Intro/Verse 1 X4
Pre-chorus
Chorus
Verse 2 X2
Pre-chorus
Chorus
Bridge
Last Chorus
Outro
End

Tabbed by: James Campbell

            
            
Suggest correction
Creating personal tab
Creating personal tab
You can edit any tab online and save it as your Personal.

You can edit, replace or remove any tab part or add personal notes – all changes will be seen only by you.

Personal tabs can be accessed anytime from any device, even offline.
Learn more »
Give kudos to tab author, rate the tab!
1 2 3 4 5
comments
print report bad tab
1 comment total.
0 reply
marmota.deazul 90 Mar 29, 2016 06:02 PM

It's not completely wrong, but the chords aren't the ones of the song. It doesn't sounds good to me and it could be better.

guest
Wanna post a correction for this tab? Suggest correction