Oops, an error
Loading. Please wait.

Why Tab

version 1
version 1

Intro

Whole song

Interactive

by Busted
2,394 views 1 this week
no commentswrite comment
1 2 3 4 5
x 6
add to favorites
×
Save as Personal and add changes to this tab that will be seen only by you. Learn more ›
×
You can save this tab as Personal to edit and correct it or add notes. All changes will be seen only by you. Learn more »
save as personal
new!
launch autoscroll
font size
0
reset
how to read this tab
guitar tuner
Autoscroll
slow
fast
+/-
esc
set tempo
stop
Tuning
E A D G B E
Hey, i think this is one of the best songs ever by busted so i decided to post the 
picking bit on this site as there is no tab for it. Enjoy, im sure this is 100% perfect.

e|--------------------------------------------------------------------|
B|---8-----8----8---7-----7-----7---5-----5-----5---5-----5------7----|
G|-----0-----0--------0-----0---------0-----0---------0-----0---------|
D|--------------------------------------------------------------------|
A|-7-----7-----7--5-----5-----5---3-----3-----3---3-----3------5------|
E|--------------------------------------------------------------------|
   Em             D               C                            D     Em

Repeat the pattern pretty fast over and over for the first verse:

look at me up in the sky
I watch the world just pass me by
And all my feelings give me away
Its happening more every day

Then play


e|---------------------------------------------------------------------|
B|-----0-----0--------------------------3-----3---------3-----3--------|
G|---2-----2-----2-----0-----0--------0-----0-----0---0-----0-----0----|
D|-------------------4-----4-----4-------------------------------------|
A|-----------------5-----5-----5----3-----3-----3---3-----3-----3------|
E|-3-----3-----3-------------------------------------------------------|
   G               D                C

Repeat fast to the words:

Loving you could be so easy
Loving you could be so great
Loving you could be so easy
Loving you could be so great

Then it stays on C and goes

G 0-0-0-0-0-0-0-0-0-0-0-0-0-0-0-0-|
D 5-5-5-5-5-5-5-5-4-4-4-4-4-4-4-4-|

into the chorus and the rest of the song, which i would put here but there seems to be a 
tab of that already.

Thanks xxxxx
please rate this tab
Suggest correction
comments
print report bad tab
guest
Wanna post a correction for this tab? Suggest correction