Oops, an error
Loading. Please wait.

Without You chords

by Busted
8,634 views 1 this week
no commentswrite comment
1 2 3 4 5
x 7
add to favorites
×
Save as Personal and add changes to this tab that will be seen only by you. Learn more ›
×
You can save this tab as Personal to edit and correct it or add notes. All changes will be seen only by you. Learn more »
launch autoscroll
font size
0
reset
transpose
0
reset
display chords
guitar tuner
edit
Autoscroll
slow
fast
+/-
esc
set tempo
stop
Author
Strumming
There is no strumming pattern for this song yet. and get +5 IQ
Without You – Busted

Intro: starts with the piano playing something similar to this. Then the guitar comes in with this:

------3---------3-----------3----------3----------------|
--------1----------1----------1----------1--------------|
-------------0------------0---------0-------------------|
----2-----0------------3---------3----------------------|
--3-----------------------------------------------------|
--------------------------------------------------------|

This sequence is plucked all through the verse (basic chords C,G,F)

Verse 1
The way you always made me look at you
With all the simple things you said
The way so many things surrounded you
And all the tears it seemed to make

Bridge:
Am
And now I'm falling
G                       F
There's nothing left to say
Am
And I can't break free
F              G
Out from in me there

Chorus:
            C   G      F
And I can't breathe without you
        C   G      F
I can't breathe without you
        C  G       F
I can't breathe without you
   Am           G            F
Without you, without you, without you

------3---------3-----------3----------3----------------|
--------1----------1----------1----------1--------------|
-------------0------------0---------0-------------------|
----2-----0------------3---------3----------------------|
--3-----------------------------------------------------|
--------------------------------------------------------|

Verse 2:
The way I never thought I'd leave this place
The way you made it seem so real
Cause you have faith and you had empathy
And all I needed was this

Bridge:
Am
And now I’m falling
G                   F
Got nothing left to say?
Am
And I can't break free
G              F
Out from in me there


Chorus:
            C   G      F
And I can't breathe without you
        C   G      F
I can't breathe without you
        C   G      F
I can't breathe without you
   Am           G            F
Without you, without you, without you

------3---------3-----------3----------3----------------|
--------1----------1----------1----------1--------------|
-------------0------------0---------0-------------------|
----2-----0------------3---------3----------------------|
--3-----------------------------------------------------|
--------------------------------------------------------|

How can I let you leave this way?
Without you I'm not at all
And I see things now in these memories
Just to see you...again

Hope that's Ok.

            
            
Suggest correction
Creating personal tab
Creating personal tab
You can edit any tab online and save it as your Personal.

You can edit, replace or remove any tab part or add personal notes – all changes will be seen only by you.

Personal tabs can be accessed anytime from any device, even offline.
Learn more »
comments
print report bad tab
guest
You may want to rate the tab now too:
select rating
Wanna post a correction for this tab? Suggest correction