Oops, an error
Loading. Please wait.

Hot Girls In Good Moods bass

706 views 1 this week
1 commentread comment
1 2 3 4 5
3 more votes to show rating
add to favorites
×
Save as Personal and add changes to this tab that will be seen only by you. Learn more ›
×
You can save this tab as Personal to edit and correct it or add notes. All changes will be seen only by you. Learn more »
launch autoscroll
font size
0
reset
guitar tuner
edit
Autoscroll
slow
fast
+/-
esc
set tempo
stop
Author
Hot Girls In Good Moods - Butch Walker and the Lets go out Tonites
Tabbed by - Sam Hughes

This song is so addictive, and i'm pretty sure this is quite accurate, the bridge is the 
thing that worries me.
things to note:
sometimes in random parts where it fits, the bassist will play a note an octave higher, 
happens in a variety of places throughout the song so watch out =)

Intro Riff/Chorus
G|---------------------------------------------------------------|
D|---------------------------------------------------------------|
A|-------------------4-----5-------------------------------------|
E|-0-0-3-4-5/-(x3)-----------------------------------------------|


Verse
G|---------------------------------------------------------------|
D|---------------------------------------------------------------|
A|-------------5-55----------------------------------------------|
E|-0-00-------------------5-55-------0-00------------------------|


Bridge Thing (this sounds good, but you can play whatever sort of fills you want as long 
you stick
to A B C# F#
G|---------------------------------------------------------------|
D|---------------------------------------------------------------|
A|-----------------------4-444444--------------------------------|
E|-5-55-3-555-7-77-5-777---------0-222-0-2-44-5-33-55-7-77-5-777-| into intro Riff for chorus


during guitar Solo
G|---------------------------------------------------------------|
D|---------------------------------------------------------------|
A|-------------------6-----7-------------------------------------|
E|-2-2-5-6-7/-(x3)-----------------------------------------------|


Middle 8
G|---------------------------------------------------------------|
D|---------------------------------------------------------------|
A|--7(ring)--5(ring)---------------------------------------------|
E|--------------------5(ring)--0(ring)---------------------------|

I think that's it!
Suggest correction
Creating personal tab
Creating personal tab
You can edit any tab online and save it as your Personal.

You can edit, replace or remove any tab part or add personal notes – all changes will be seen only by you.

Personal tabs can be accessed anytime from any device, even offline.
Learn more »
Give kudos to tab author, rate the tab!
1 2 3 4 5
comments
print report bad tab
1 comment total.
+1 reply
CaitlinAnne 10 Feb 01, 2009 12:04 PM

This is really good! It's so hard to find good tabs for Butch Walker. Thanks a lot. :)

guest
You may want to rate the tab now too:
select rating
Wanna post a correction for this tab? Suggest correction