Oops, an error
Loading. Please wait.

Another White Dash Chords

version 2
version 2

Whole song

540 views 1 this week
no commentswrite comment
1 2 3 4 5
please rate
add to favorites
launch autoscroll
font size
0
reset
transpose
0
reset
simplify chords
display chords
guitar tuner
Autoscroll
slow
fast
+/-
esc
set tempo
stop
Help us to improve Ultimate-Guitar.com Take our survey!
×
Author
Capo
megandy 176
2nd fret
-------------------------------------------------------------------------------
                     ANOTHER WHITE DASH - Butterfly Boucher
-------------------------------------------------------------------------------
Song: Another White Dash
Artist: Butterfly Boucher
Tabbed by: Megandy 
E-mail: meganegandy (at) gmail (dot) com

I think the first person to tab this did a great job getting it started. But I 

think if you play it on capo 2, with C-shape (and D-shape chords at the key 

change), you'll find that you pick up a few of those nuanced sounds that don't 

get captured without the capo-ed position.
------------------
Capo 2
INTRO:
Am (add 1st fret high-e string at the end of each 8-count. you can barre it with 

your index finger. see chord chart below.)


VERSE 1:  
Am (add 1st fret high-e string at end of each 8-count, same as intro)
There is something exciting...
There is something deep...
Am              Am/G   Am/F                           Am
Something about having everything you think you'll ever need
Am/G                Am/F
sitting in the seat next to you

CHORUS:
C
Another white dash
Cadd2
Another white dash
C
Another white dash
Cadd2           Fmaj7/A
Fly beside us
(repeat)
Am
Away away


VERSE 2:
Am (add 1st fret, same as first verse)
Yelling of an engine...
Serious deep and mumbles...
Am                 Am/G                     Am/F                  
Flickering lights, Shadows of trees, Makes me blink my eyes
Am             Am/G                     Am/F
Makes the land appear like a really old movie

CHORUS:
(same as above, but instead end it with):
C
Away away


BRIDGE (Instrumental):
C (for a full 8-count)
Am (same)
Am/F (same)
C                     C/B
I got a heart full of rubberbands 
          C/A                           
that keep getting caught on 
C       C/G    C/F
things

CHORUS (SAME AS ABOVE)


KEY CHANGE (CHORUS REPEATS):
D
Another white dash
Dadd2
Another white dash
D
Another white dash
Dadd2           Gmaj7/B
Fly beside us 

VERSE 1 (SAME AS ABOVE BUT WITH KEY CHANGE):
Bm
There is something exciting...
There is something deep...
Bm              Bm/A   Bm/G                          Bm
Something about having everything you think you'll ever need
Bm/A                Bm
sitting in the seat next to you

END

CHORD DIAGRAMS:

(T=Thumb)

C
e |---|---|---|---|---| o
B |-1-|---|---|---|---| o
G |---|---|---|---|---| o
D |---|-2-|---|---|---| o
A |---|---|-3-|---|---| o
E |---|---|---|---|---| x
 
Cadd2
E |---|---|---|---|---| o
B |-1-|---|---|---|---| o
G |---|---|---|---|---| o
D |---|---|---|---|---| o
A |---|---|-3-|---|---| o
E |---|---|---|---|---| x

Am
E |---|---|---|---|---| o
B |-1-|---|---|---|---| o
G |---|-2-|---|---|---| o
D |---|-3-|---|---|---| o
A |---|---|---|---|---| o
E |---|---|---|---|---| x

Am (add 1st fret)
E |-1-|---|---|---|---| o
B |-1-|---|---|---|---| o
G |---|-2-|---|---|---| o
D |---|-3-|---|---|---| o
A |---|---|---|---|---| o
E |---|---|---|---|---| x
 
Am/G
E |---|---|---|---|---| o
B |-1-|---|---|---|---| o
G |---|-2-|---|---|---| o
D |---|-3-|---|---|---| o
A |---|---|---|---|---| o
E |---|---|-T-|---|---| o
 
Am/F
E |---|---|---|---|---| o
B |-1-|---|---|---|---| o
G |---|-2-|---|---|---| o
D |---|-3-|---|---|---| o
A |---|---|---|---|---| o
E |-T-|---|---|---|---| o
 
Fmaj7/A
E |---|---|---|---|---| o
B |-1-|---|---|---|---| o
G |---|-2-|---|---|---| o
D |---|---|-3-|---|---| o
A |---|---|---|---|---| o
E |---|---|---|---|---| x
 
C/B
E |---|---|---|---|---| o
B |-1-|---|---|---|---| o
G |---|---|---|---|---| o
D |---|-2-|---|---|---| o
A |---|-2-|---|---|---| o
E |---|---|---|---|---| x

C/A
E |---|---|---|---|---| o
B |-1-|---|---|---|---| o
G |---|---|---|---|---| o
D |---|-2-|---|---|---| o
A |---|---|---|---|---| o
E |---|---|---|---|---| x

D
E |---|-3-|---|---|---| o
B |---|---|-2-|---|---| o
G |---|-1-|---|---|---| o
D |---|---|---|---|---| o
A |---|---|---|---|---| x
E |---|---|---|---|---| x

Dadd2
E |---|---|---|---|---| o
B |---|---|-2-|---|---| o
G |---|-1-|---|---|---| o
D |---|---|---|---|---| o
A |---|---|---|---|---| o
E |---|---|---|---|---| x

Gmaj7/A
E |---|-3-|---|---|---| o
B |---|---|---|---|---| o
G |---|---|---|---|---| o
D |---|---|---|---|---| o
A |---|-2-|---|---|---| o
E |---|---|---|---|---| x
Suggest correction
What's this?
You can suggest a correction to this tab. Community and Mods will review your correction and vote to approve or reject it.
comments
We did not receive enough feedback on this tab! Please rate:
print report bad tab
1 2 3 4 5
guest
You may want to rate the tab now too:
select rating
Please do not post tabs as comments. Select "correction" instead!