Oops, an error
Loading. Please wait.

To Feel Love Tab

231 views 1 this week
no commentswrite comment
1 2 3 4 5
please rate
add to favorites
launch autoscroll
font size
0
reset
how to read this tab
guitar tuner
Autoscroll
slow
fast
+/-
esc
set tempo
stop
Help us to improve Ultimate-Guitar.com Take our survey!
×
Author
Difficulty
Tuning
Capo
intermediate
D A D G B E
5th fret
-------------------------------------------------------------------------------
                             To Feel Love - Butterfly Boucher
-------------------------------------------------------------------------------
Tabbed by: Terry Speegle

Tuning: Drop D, Capo on 5th Fret

This is based on the various live versions of the song where Butterfly performs solo.  
My first tab posting, so dont hate.  Trying to finish this up with my daughter 
singing, but nobody could pull it off like the artist herself.

The intro, verse, and bridge patterns are straightforward when you listen to it, 
the chorus and breakdown are challenging, still working those out.

Intro

e|---0--0--0--0--|-0--0--3b---0----||--1-----0-----|--0----------------------|
B|---1--1--1--1--|-0--0--0----0-- -||--1-x8--1-x4--|--0----------------------|
G|---2--2--2--2--|-0--0--0----0----||--2-----2-----|--1----------------------|
D|---------------|-----------------||--------------|--2----------------------|
A|---------------|-----------------||--------------|--2----------------------|
E|---------------|-----------------||--------------|-------------------------|
      These 2 measures together x2      3 measures        hold

And Repeat throughout verse
     
Don't make me say it, you don't want to hear it
I held it in and I hoped my heart could change

You say you're not, but you seem so certain
I'm really sorry but I just don't feel the same
You can pin all the blame on me


Chorus

Strumming pattern follow along with song.  Also, G B e strings open to 
suggestions.  Probably open high e where practical.

e|---------------------------------------------------------------------------|
B|---------------------------------------------------------------------------|
G|---14-----------------14---------------------------------------------------|
D|---15--------14-------15-------14------12--------13------------------------|
A|---12--------10-------12-------10------8---------7-------------------------|
E|---12--------10-------12-------10------8---------7-------------------------|

Because I want to feel love,
Real love
Deep, down love


Back to Verse

Don't try to shatter all my hopes of true love
Don't try to tell me theres no such thing as "the one"
I understand, I understand clearly
It doesn't happen like it happens in the movies
Im aware, Ive been there
I dont care, I'm a dreamer

Back to Chorus


Bridge? 

e|--1------------0----------0----------1-------0-------0---------------------|
B|--1-x16--------1-x8-------0-x8-------1-x16---1-x8----0-hold----------------|
G|--2------------2----------1----------2-------2-------1---------------------|
D|---------------------------------------------------------------------------|
A|---------------------------------------------------------------------------|
E|---------------------------------------------------------------------------|

While I was gone all my friends got married
Whos fooling who, I don't want to die lonely
So love's got time
But I'm not gonna lie to you

Back to chorus one more time


Breakdown, heavy, rocking strumming of these until the end:

Am   G   Am    G   D   Em       Am  D  G  Em       Am



Dont forget you are dropped D, so use the open D for the D chords and you can 
thumb the low E for the Em.
Suggest correction
Give kudos to tab author, rate the tab!
1 2 3 4 5
comments
print report bad tab
guest
You may want to rate the tab now too:
select rating
Wanna post a correction for this tab? Suggest correction