Oops, an error
Loading. Please wait.

100 Million People Dead Bass Tab

329 views 1 this week
no commentswrite comment
1 2 3 4 5
3 more votes to show rating
add to favorites
launch autoscroll
font size
0
reset
guitar tuner
Autoscroll
slow
fast
+/-
esc
set tempo
stop
Help us to improve Ultimate-Guitar.com Take our survey!
×
Author
-------------------------------------------------------------------------------
			     100 MILLION PEOPLE DEAD - Butthole Surfers
-------------------------------------------------------------------------------

Tabbed by: Tyler J
Email: full_metal_orange AT hotmail DOT com

Tuning: Standard


G-------------------12-------------------15-|
D----------14-12----------------14-12-------|
A----------------14-------------------14----|
E--0-0-0-0--------------0-0-0-0-------------|

G------------------------------------------------------------|
D----------14-14-14-14-14-12--------------14-14-14--14-12----|
A----------------------------14\--------------------------14-|
E--0-0-0-0------------------------0-0-0-0--------------------|

repeat several times, varying the riff each time.

then play:

G------------------14-14-14-14-14-14-14-|
D------------------12-12-12-12-12-12-12-|
A---------------------------------------|
E--0-0-0-0-0-0-0-0----------------------|

G------------------12-12-12-12-12-12-12-|
D------------------12-12-12-12-12-12-12-|
A---------------------------------------|
E--0-0-0-0-0-0-0-0----------------------|

repeat several times...

repeat those 2 riffs til finish.

-------------------------------------------------
THE BUTTHOLE SURFERS GUITAR/BASS TAB ARCHIVE:
http://www.islandnet.com/~mustang/1401/index.html
-------------------------------------------------
Suggest correction
Give kudos to tab author, rate the tab!
1 2 3 4 5
comments
print report bad tab
guest
You may want to rate the tab now too:
select rating
Wanna post a correction for this tab? Suggest correction