Oops, an error
Loading. Please wait.

22 Going On 23 tab

version 2
version 2

Whole song

299 views 6 this week
no commentswrite comment
1 2 3 4 5
3 more votes to show rating
add to favorites
×
Save as Personal and add changes to this tab that will be seen only by you. Learn more ›
×
You can save this tab as Personal to edit and correct it or add notes. All changes will be seen only by you. Learn more »
launch autoscroll
font size
0
reset
how to read this tab
guitar tuner
edit
Autoscroll
slow
fast
+/-
esc
set tempo
stop
Author
Difficulty
-------------------------------------------------------------------------------
                             22 Going On 23 - Butthole Surfers
-------------------------------------------------------------------------------
Tabbed by: Chris Lawrence (uploaded by Ritik)
E-mail: ritikrao@hotmail.com

ritikrao@hotmail.com

Tuning: Standard

The first time it is played like this:

e-----------------------
B-----------------------
G-----------------------
D-----------------------
A--2--2-2-5-5-5-4-pick scrape

But the rest of the time you play it like this:

e-----------------------------------
B-----------------------------------
G-----------------------------------
D-----------------------------------
A-----------------------------------
E-0--0-0-3-3-3-2~--pick scrape

Only put a slight vibrato of a dozen cents or so on note before the scrape. Mute E, A strings during pick scrape.




For the solo, you might not be able to reach certain notes on smaller necks.



E------------------------------------------------------------------------------
B--15b~~~~--15-15-15-15r-------------------------------------------------------
G------------------------12~~~-12-14-14b-14-14-14-14~~~~---14-14-14-14--14~~~--
D---- keep note bent ---------------- gradually bend ----- note still bent-----
A------------------------------------------------------------------------------
E------------------------------------------------------------------------------



E-----15-15-14-14-14\--------12--12--12--12--15-17b~~~~-17b-17b-17b~~~~~--
B---------------------17~~~--15b-15b-15b-15b------------------------------
G--(14~~~~~~~~~~~)--------------------------------------------------------
D-------------------------------------------------------------------------
A-------------------------------------------------------------------------
E-------------------------------------------------------------------------



E--(17b~~~)-17~-17~-17~-17~-15~-15~-15~-15~-15~-15\12~-12~-12~-12~-12~--
B---return--------------------------------------------------------------
G-----------------------------------------------------------------------
D-----------------------------------------------------------------------
A-----------------------------------------------------------------------
E-----------------------------------------------------------------------



E--12\15~-15~-15~-15~\-21b~~~-21~-21~-21~-21~-21~-21~-21~--- etc
B------------------------hold bend----------21~-21~-21~-21~- bend/shake/pick
G----------------------------------------------------------- furiously
D----------------------------------------------------------- then slide back
A-----------------------------------------------------------
E-----------------------------------------------------------



E---------------------15-15-14-14-14\-------12--12--12--12--15-17~~-17~17~17~17~~--
B-------------------------------------17~~~-15b-15b-15b-15b------------------------
G--14b-14~-14~-14~-14~~~~~~~~~~~~~-------------------------------------------------
D------- hold bend ----------------------------------------------------------------
A----------------------------------------------------------------------------------
E----------------------------------------------------------------------------------



E-----------------14-14-12~~-17-17-17-17-16-14-12~~~--
B-----------12-12-------------------------------------
G-----13-13-------------------------------------------
D--14-------------------------------------------------
A-----------------------------------------------------
E-----------------------------------------------------



E-----------------14-14-12~~-17-17-17-17-19b~~\--
B-----------12-12--------------------------------
G-----13-13--------------------------------------
D--14--------------------------------------------
A------------------------------------------------
E------------------------------------------------



E-----------------14-14-12~~-17-17-17-17-16-14-12~~~--
B-----------12-12-------------------------------------
G-----13-13-------------------------------------------
D--14-------------------------------------------------
A-----------------------------------------------------
E-----------------------------------------------------


E-----------------14-14-12~~-19~-19~-19~-19~-19~-19~-- this is right at the end
B-----------12-12------------------------------------- of the solo, and for the
G-----13-13------------------------------------------- last few notes just explode
D--14------------------------------------------------- into a noise frenzy around
A----------------------------------------------------- the 19th-22nd frets...





************************************

| /   slide up
| \   slide down
| h   hammer-on
| p   pull-off
| ~   vibrato
| +   harmonic
| x   Mute note
| b   Bend
| pb  Pre-bend
| br  Bend release
| pbr Pre-bend release
| brb Bend release bend

************************************

            
            
Suggest correction
Creating personal tab
Creating personal tab
You can edit any tab online and save it as your Personal.

You can edit, replace or remove any tab part or add personal notes – all changes will be seen only by you.

Personal tabs can be accessed anytime from any device, even offline.
Learn more »
Give kudos to tab author, rate the tab!
1 2 3 4 5
comments
print report bad tab
guest
You may want to rate the tab now too:
select rating
Wanna post a correction for this tab? Suggest correction