Oops, an error
Loading. Please wait.

Bong Song Bass Tab

406 views 1 this week
no commentswrite comment
1 2 3 4 5
3 more votes to show rating
add to favorites
launch autoscroll
font size
0
reset
guitar tuner
Autoscroll
slow
fast
+/-
esc
set tempo
stop
Help us to improve Ultimate-Guitar.com Take our survey!
×
Author
-------------------------------------------------------------------------------
			     BONG SONG - Butthole Surfers
-------------------------------------------------------------------------------

Tabbed by: Tyler J
Email: full_metal_orange AT hotmail DOT com

Tuning: Standard


intro:

G---------------------------------------------14---14-12-14-----|
D--\14---14-12---------------12-14---14-12------------------14--|
A--------------15-12---12-15---------------15-------------------|
E---------------------------------------------------------------|

G------------------------------------------------14----14--14----14--|
D--14-12------------------------12-14---14-12------------------------|
A--------15-12---12-12-12^14\15---------------15----15--------15-----|
E--------------------------------------------------------------------|

G--14----14--14----14--14-16-16-16-17-17----------------------------------|
D-----------------------------------------14---14-12---------------12-14--|
A-----15--------15-----------------------------------15-12---12-15--------|
E-------------------------------------------------------------------------|

G-----------14---14-12-14------------------------------------------|
D--14-12------------------14---14-12------------------------12-14--|
A--------15--------------------------15-12---12-12-12^14\15--------|
E------------------------------------------------------------------|

G--------------14---14----------14--|
D--14-14-12------------15\17--------|
A-----------15----15---------15-----|
E-----------------------------------|

verse:

G----------------------------------------------------------------|
D----------------------------------------------------------------|
A-------------\10-10-10-10-9-9-----------------------------------|
E--5--5-5-5-5-------------------10-10-10-10-9-9-10-10-10-10-7-7--|

play 3 times, then:

G-----------------------------------------------------------------------|
D----------------------------------------------------14-14-14\12-10-10--|
A-----------------------------------------------------------------------|
E--5-5-5-5-\8-8-8-7-7-7-3-3-0--0-0-0-0-0-0-0-0-0-0-0--------------------|

repeat intro/verse/intro/verse ... end on A.

-------------------------------------------------
THE BUTTHOLE SURFERS GUITAR/BASS TAB ARCHIVE:
http://www.islandnet.com/~mustang/1401/index.html
-------------------------------------------------
Suggest correction
Give kudos to tab author, rate the tab!
1 2 3 4 5
comments
print report bad tab
guest
You may want to rate the tab now too:
select rating
Wanna post a correction for this tab? Suggest correction