Oops, an error
Loading. Please wait.

Goofys Concern Tab

version 2
version 2

Whole song

Interactive

1,686 views 1 this week
no commentswrite comment
1 2 3 4 5
please rate
add to favorites
launch autoscroll
font size
0
reset
how to read this tab
guitar tuner
Autoscroll
slow
fast
+/-
esc
set tempo
stop
Help us to improve Ultimate-Guitar.com Take our survey!
×
Contributor
tyler_j 3,409
-------------------------------------------------------------------------------
                             GOOFY'S CONCERN - Butthole Surfers
-------------------------------------------------------------------------------
Tabbed by: Tyler J
Email: full_metal_orange AT hotmail DOT com

Tuning: Standard

Awesome song that sort of ties in with "Chewin' George Lucas' Chocolate"

Intro:

E-----------|
B-----------|
G-----------|
D-----------|
A-----------|
E--0--0-3-0-| drop trem bar

Bend the G note a bit.

Riff:

E----------------------------------------------------------------|
B----------------------------------------------------------------|
G--------10-10-10-10-9-9-9-9-------------9-9-9-9-9-9-9-9---------|
D--7-7-7-10-10-10-10-9-9-9-9-10-10-10-10-9-9-9-9-9-9-9-9-7-7-7-7-|
A--7-7-7--8--8--8--8-7-7-7-7-10-10-10-10-7-7-7-7-7-7-7-7-7-7-7-7-|
E--5-5-5----------------------8--8--8--8-----------------5-5-5-5-|

E--------------------------------------|
B--------------------------------------|
G--------------------9-9-9-9-9---------|
D--10-10-10-10-9-9-9-9-9-9-9-9-7-7-7-7-|
A--10-10-10-10-9-9-9-7-7-7-7-7-7-7-7-7-|
E---8--8--8--8-7-7-7-----------5-5-5-5-|


Verse:

E-------------------------------------|
B-------------------------------------|
G-------------------------------------|
D--7-7-7-7-7-7-7-7-7-7-7-10--10-10-10-|  X 3
A--7-7-7-7-7-7-7-7-7-7-7-10--10-10-10-|
E--5-5-5-5-5-5-5-5-5-5-5--8---8--8--8-|

E--------------------------------|
B--------------------------------|
G--------------------------------|
D-10-10-10-10-10-10-10-10-10-10\-|
A-10-10-10-10-10-10-10-10-10-10\-|
E--8--8--8--8--8--8--8--8--8--8\-|


Interlude:

E--5-5-5-5-5-5-5-5-5-5-5-5-5-5-5-5-3-3-3-3-3\5-|
B--5-5-5-5-5-5-5-5-5-5-5-5-5-5-5-5-3-3-3-3-3\5-|
G--6-6-6-6-6-6-6-6-6-6-6-6-6-6-6-6-4-4-4-4-4\6-|
D--7-7-7-7-7-7-7-7-7-7-7-7-7-7-7-7-5-5-5-5-5\7-|
A--0-0-0-0-0-0-0-0-0-0-0-0-0-0-0-0-0-0-0-0-0-0-|
E----------------------------------------------|

E--5-5-5-5-5-5-5-5-5-5-5-5-5-5-5-5-3-3-3-3-3\5-5-5-5-5-|
B--5-5-5-5-5-5-5-5-5-5-5-5-5-5-5-5-3-3-3-3-3\5-5-5-5-5-|
G--6-6-6-6-6-6-6-6-6-6-6-6-6-6-6-6-4-4-4-4-4\6-6-6-6-6-|
D--7-7-7-7-7-7-7-7-7-7-7-7-7-7-7-7-5-5-5-5-5\7-7-7-7-7-|
A--0-0-0-0-0-0-0-0-0-0-0-0-0-0-0-0-0-0-0-0-0-0-0-0-0-0-|
E------------------------------------------------------|

E--3-3-3-3-3\5-5-5-5-5-3-3-3-3-3\5-5-5-5-5-|
B--3-3-3-3-3\5-5-5-5-5-3-3-3-3-3\5-5-5-5-5-|
G--4-4-4-4-4\6-6-6-6-6-4-4-4-4-4\6-6-6-6-6-|
D--5-5-5-5-5\7-7-7-7-7-5-5-5-5-5\7-7-7-7-7-|
A--0-0-0-0-0-0-0-0-0-0-0-0-0-0-0-0-0-0-0-0-|
E------------------------------------------|

E--3-3-3-3-3\5-5-5-5-5-5-5-5-5-|
B--3-3-3-3-3\5-5-5-5-5-5-5-5-5-|
G--4-4-4-4-4\6-6-6-6-6-6-6-6-6-|
D--5-5-5-5-5\7-7-7-7-7-7-7-7-7-|
A--0-0-0-0-0-0-0-0-0-0-0-0-0-0-|
E------------------------------|


E------------------------------|
B----------------------8-9br-8-|
G--\9-9-9-9-9-9-9-9-\9---------| REPEAT SEVERAL TIMES,
D--\9-9-9-9-9-9-9-9------------| VARYING RIFF AT END
A--\7-7-7-7-7-7-7-7------------|
E---0-0-0-0-0-0-0-0------------|

Back to the riff, verse then riff again


-------------------------------------------------
THE BUTTHOLE SURFERS GUITAR/BASS TAB ARCHIVE:
http://www.islandnet.com/~mustang/1401/index.html
-------------------------------------------------
comments
We did not receive enough feedback on this tab! Please rate:
print report bad tab
1 2 3 4 5
I want to post or [tab]
guest
You may want to rate the tab now too:
select rating
Please do not post tabs as comments. Select "correction" instead!