Oops, an error
Loading. Please wait.

Hey Bass Tab

713 views 1 this week
no commentswrite comment
1 2 3 4 5
please rate
add to favorites
launch autoscroll
font size
0
reset
guitar tuner
Autoscroll
slow
fast
+/-
esc
set tempo
stop
Help us to improve Ultimate-Guitar.com Take our survey!
×
Author
Difficulty
novice
-------------------------------------------------------------------------------
			     HEY - Butthole Surfers
-------------------------------------------------------------------------------
Tabbed by: Tyler J
Email: full_metal_orange AT hotmail DOT com

Tuning: Standard

Awesome song
This is an absolutely awesome bass intro even though you can't really hear it on the recordings


G--------------------------------------------------------------------|
D--------------------------------2-2-0-0-0-0-0-0-3-3-2-2-0-0---------|
A--0-0-0-0-0-0-0-0-0-0-0-0-0-3-3-----------------------------3-3-0-0-| etc
E--------------------------------------------------------------------|

verse:

G---------------------------------------------     -----|
D---3-3-2-2-0-0-0-0-0-0-3-3-2-2--------------- X 2 -----|
A-------------------------------3-3-3-3-3-3-3-     --2--|
E---------------------------------------------     -----|
Suggest correction
Give kudos to tab author, rate the tab!
1 2 3 4 5
comments
print report bad tab
guest
You may want to rate the tab now too:
select rating
Wanna post a correction for this tab? Suggest correction