Oops, an error
Loading. Please wait.

Hey Tab

1,463 views 12 this week
no commentswrite comment
1 2 3 4 5
please rate
add to favorites
launch autoscroll
font size
0
reset
how to read this tab
guitar tuner
Tab Pro tools
  • play this tab
  • loop segment
  • change instrument
  • show fretboard
  • metronome
×
Best way to learn
"Hey"
Autoscroll
slow
fast
+/-
esc
set tempo
stop
Contributor
Difficulty
intermediate
-------------------------------------------------------------------------------
                             HEY - Butthole Surfers
-------------------------------------------------------------------------------
Tabbed by: Tyler J
Email: full_metal_orange AT hotmail DOT com

Tuning: Standard

Fade in on A chord.

First progression:

E--1--1---1-1-0^1--0--------0------------|
B--3----3-3-3-3------3------2---2--------|
G--2------2-2-2---2-----2-2---2-2--2-2-2-|
D--0------0-0-0---0-----2-----2-2--2-2-2-|
A-----------------------0-----0-0--0-0-0-|
E----------------------------------------|

Second progression:

E--1--1---1-1-0^1-0-------0---0^1^0--|
B--3----3---3--------1--1---1-1------|
G--2--------2--------0--0-----0------|
D--0--------0--------2--------2------|
A--------------------3--------3------|
E------------------------------------|

"Let's go to hell": play atonal harmonics at the fret of your choice.

Fast section:

E-----------------------------------17-16-15-14-------------|
B------13~~~------------------------------------------------|
G--14~~~~14~~14-14\-----5-5\7~~-----------------------------|
D--------------------------------------------------7~~~~----|
A-----------------------------------------------------------|
E-----------------------------------------------------------|

(it sounds like there may be 2 guitars playing in this part..)

E--------------------------pinch---------5---8-7-6-5----------|
B-----8----8----------------*7*----------5--------------------|
G--7b---7b---7b--5\7~~~~~~b-----7r---------------------5\7~~--|
D-----------------------------------5\7~~---------------------|
A-------------------------------------------------------------|
E-------------------------------------------------------------|

                            * GIBBY's VOCALS ENTER
E-----------------------5---------------------------------------------|
B-----6------5b---------5---------------------------------------------|
G--7~----5^7----7-5----------5^7~~~-7br-5~~~-----5^7~~~-7br-5~~~--4\--|
D-------------------5\7~~~--------------------------------------------|
A----------------------------Dm---------C--------Dm---------C-----B---|
E---------------------------------------------------------------------|

Repeat simile til end.
comments
We did not receive enough feedback on this tab! Please rate:
print report bad tab
1 2 3 4 5
I want to post or [tab]
guest
You may want to rate the tab now too:
select rating
Please do not post tabs as comments. Select "correction" instead!