Oops, an error
Loading. Please wait.

Human Cannonball bass

172 views 9 this week
1 commentread comment
1 2 3 4 5
2 more votes to show rating
add to favorites
×
Save as Personal and add changes to this tab that will be seen only by you. Learn more ›
×
You can save this tab as Personal to edit and correct it or add notes. All changes will be seen only by you. Learn more »
launch autoscroll
font size
0
reset
guitar tuner
edit
Autoscroll
slow
fast
+/-
esc
set tempo
stop
Intro            (You're only playing D for the first minute)
G|-------------------------------------------------------------------------------------|
D|-------------------------------------------------------------------------------------|
A|-5-5-5--5-5-5--5-5-5--5-5-5--5-5-5--5-5-5--5-5-5--5-5-5--5-5-5--5-5-5--5-5-5--5-5-5--|
E|-------------------------------------------------------------------------------------|


Main Riff (Guitar Comes in Not Just Feedback)  [1:03]                     x3
G|--------------------------------------------------------------------------|
D|--------------------------------------------------------------------------|
A|-5-5-5-5-5-5-5-5--3-3-3-3-3-3-3-3--7-7-7-7-7-7-7-7--8--7--5-5-5-5-5-5-5-5-|
E|--------------------------------------------------------------------------|

G|--------------------------------------------------------------------------|
D|--------------------------------------------------------------------------|
A|-5-5-5-5-5-5-5-5--3-3-3-3-3-3-3-3--7-7-7-7-7-7-7-7--8--7------------------|
E|--------------------------------------------------------------------------|


Main Riff   [1:34]                                                       x15
G|--------------------------------------------------------------------------|
D|--------------------------------------------------------------------------|
A|-5-5-5-5-5-5-5-5--3-3-3-3-3-3-3-3--7-7-7-7-7-7-7-7--8--7--5-5-5-5-5-5-5-5-|
E|--------------------------------------------------------------------------|


Last Bar
G|--------------------------------------------------------------------------|
D|--------------------------------------------------------------------------|
A|-5-5-5-5-5-5-5-5--3-3-3-3-3-3-3-3--7-7-7-7-7-7-7-7--8--7--5---------------|
E|--------------------------------------------------------------------------|


Really there's nothing to it.
It's a very simple tune, You play only "D" for the first minute and then there's only the one riff.
Basically you just play the Main Riff 20 times over, the only variance is the last bar before the first verse
and the last bar before the end of the song.
Suggest correction
Creating personal tab
Creating personal tab
You can edit any tab online and save it as your Personal.

You can edit, replace or remove any tab part or add personal notes – all changes will be seen only by you.

Personal tabs can be accessed anytime from any device, even offline.
Learn more »
Give kudos to tab author, rate the tab!
1 2 3 4 5
comments
print report bad tab
1 comment total.
0 reply
hojonc0 10 Apr 06, 2017 05:53 PM

Great tab, thanks!

guest
You may want to rate the tab now too:
select rating
Wanna post a correction for this tab? Suggest correction