Oops, an error
Loading. Please wait.

Imbuya Bass Tab

88 views 1 this week
no commentswrite comment
1 2 3 4 5
please rate
add to favorites
launch autoscroll
font size
0
reset
guitar tuner
Autoscroll
slow
fast
+/-
esc
set tempo
stop
Help us to improve Ultimate-Guitar.com Take our survey!
×
Author
-------------------------------------------------------------------------------
			     IMBUYA - Butthole Surfers
-------------------------------------------------------------------------------

Tabbed by: Tyler J
Email: full_metal_orange AT hotmail DOT com

Tuning: Standard


intro:

G---------------|
D---------------|
A---------------|
E--8------8-----|

verse:

G-----------------------|
D-----------------------|
A-----------------------|
E--8-8-8-8-8-8-8-8-8-8--| etc

chorus:

G-----------------------------------------------------------------|
D-----------------------------------------------------------------|
A-----------------------------------------------------------------|
E--11-11-11-11-11-11-11-11-10-10-10-10-9-9-9-9-8-8-8-8-8-8-8-8-8--|

after chorus:

G---------------------------------|
D---------------------------------|
A---------------------------------|
E--11-11-11-11-11-11-11-11-11-11--| etc

repeat chorus twice

then:

G--------------------------     -------------------------|
D--------------------------     -------------------------|
A--------------------------     -------------------------|
E--11-11-11-11-11-11-11-11- etc --8-8-8-8-8-8-8-8-8-8-8--| etc

keep playing C under guitar solo. when the guitar moves up,
the bass moves up to Eb. back to C for the next verse.

it's all basically either C or Eb, plus the chorus riff...

outro:

G------------------|
D------------------|
A------------------|
E--8-8-8--8-11-13--|

-------------------------------------------------
THE BUTTHOLE SURFERS GUITAR/BASS TAB ARCHIVE:
http://www.islandnet.com/~mustang/1401/index.html
-------------------------------------------------
Suggest correction
What's this?
You can suggest a correction to this tab. Community and Mods will review your correction and vote to approve or reject it.
comments
We did not receive enough feedback on this tab! Please rate:
print report bad tab
1 2 3 4 5
guest
You may want to rate the tab now too:
select rating
Please do not post tabs as comments. Select "correction" instead!