Oops, an error
Loading. Please wait.

Jingle Of A Dogs Collar Tab

version 2
version 2

Whole song

1,017 views 3 this week
3 commentsread comments
1 2 3 4 5
2 more votes to show rating
add to favorites
launch autoscroll
font size
0
reset
how to read this tab
guitar tuner
Autoscroll
slow
fast
+/-
esc
set tempo
stop
Help us to improve Ultimate-Guitar.com Take our survey!
×
This song has been on every tab site, but WRONG! I had to figure it out myself and I 
I would help some people out and put it up.

Intro(Chorus)
e----------------------------------|
b-----11--11--11------10--10--10---|
g-12----12--12--10--10--10--10--10-|
d----------------------------------|  x3
a----------------------------------|
e----------------------------------|

e-----------------------------------|
b-----11--11--11--10-10-10^10^10-10-|
g-12----12--12----10-10-10^10^10-10-|
d-----------------------------------|
a-----------------------------------|
e-----------------------------------|

Verse Pt 1
e----------------------------------|
b----------------------------------|
g----------------------------------|
d----------------------------------|  x4
a-----13--13--13------12--12--12---|
e-15----15--15--13--13--13--13--13-|

Verse Pt 2
e----------------------------------|
b----------------------------------|
g----------------------------------|
d----------------------------------|
a-----13--13-15------12--12--12----|
e-15----15------13--13--13--13--13-|

e----------------------------------|
b----------------------------------|
g----------------------------------|
d----------------------------------|
a-----13--13--13------12--12--12---|
e-15----15--15--13--13--13--13--13-|

e----------------------------------|
b----------------------------------|
g----------------------------------|
d----------------------------------|
a-----13--13-15------12--12--12----|
e-15----15------13--13--13--13--13-|

Chorus

e-----------------------------------|
b-----11--11--11--10-10-10^10^10-10-|
g-12----12--12----11-11-11^11^11-11-|
d-----------------------------------|
a-----------------------------------|
e-----------------------------------|

e-----------------------------------|
b-----11--11--11--10-10-10^10^10-10-|
g-12----12--12----10-10-10^10^10-10-|
d-----------------------------------|
a-----------------------------------|
e-----------------------------------|

Bridge x 4

e----------------------------------|
b-11--11--11--11--11--11--11--11---|
g-12--12--12--12--12--12--12--12---|
d----------------------------------|
a----------------------------------|
e----------------------------------|

e----------------------------------|
b-10--10--10--10--10--10--10--10---|
g-11--11--11--11--11--11--11--11---|
d----------------------------------|
a----------------------------------|
e----------------------------------|

Repeat Verse Pt 2

Chorus

Repeat Verse Pt 1(Only Play Once) & 2

Bridge 2 x 4

e-13-13-13-13-13--13-13--13--13-13-|
b-11-11-11-11-11--11-11--11--11-11-|
g-12-12-12-12-12--12-12--12--12-12-|
d----------------------------------|
a----------------------------------|
e----------------------------------|


e-12-12-12-12-12--12-12--12--12-12-|
b-10-10-10-10-10--10-10--10--10-10-|
g-11-11-11-11-11--11-11--11--11-11-|
d----------------------------------|
a----------------------------------|
e----------------------------------|

Bridge 3 x 8

e-10-10-10-10-10--10-10--10--10-10-|
b-11-11-11-11-11--11-11--11--11-11-|
g-12-12-12-12-12--12-12--12--12-12-|
d----------------------------------|
a----------------------------------|
e----------------------------------|


e--9--9--9--9--9---9--9---9---9--9-|
b-10-10-10-10-10--10-10--10--10-10-|
g-11-11-11-11-11--11-11--11--11-11-|
d----------------------------------|
a----------------------------------|
e----------------------------------|

Outro

e-9----------9--8--------8---9--8-6-|
b--10------10-10-9------9-9-10--9-7-|
g----11--11-------10--10----11-10-8-|
d------11-----------10------11-10-8-|
a-----------------------------------|
e-----------------------------------|

The outro slows down as it goes along, let last chord ring.
Suggest correction
Give kudos to tab author, rate the tab!
1 2 3 4 5
comments
print report bad tab
3 comments total.
0 reply
bigjilm 83 Feb 07, 2013 11:57 PM

The soloing is alright, but the chords sound horrible. Sorry.

0 reply
bigjilm 83 May 05, 2013 12:03 AM

On second thought, chords sound just a bit off. I had the wrong rhythm.

0 reply
bigjilm 83 May 05, 2013 12:04 AM

On second thought, chords sound alright. I just had the rhythm wrong.

guest
You may want to rate the tab now too:
select rating
Wanna post a correction for this tab? Suggest correction