Oops, an error
Loading. Please wait.

Moving To Florida Bass Tab

222 views 1 this week
no commentswrite comment
1 2 3 4 5
please rate
add to favorites
launch autoscroll
font size
0
reset
guitar tuner
Autoscroll
slow
fast
+/-
esc
set tempo
stop
Help us to improve Ultimate-Guitar.com Take our survey!
×
Author
-------------------------------------------------------------------------------
			     MOVING TO FLORIDA - Butthole Surfers
-------------------------------------------------------------------------------

Tabbed by: Tyler J
Email: full_metal_orange AT hotmail DOT com

Tuning: Standard


verse

G-------------------|
D-------------------|
A-------------------|
E--0-0---0-0---0-0--|

skronk off for first 2 instrumentals

final instrumental:

G---------------------------------------------------------------------|
D---------------------------------------2-2-3-3-5-5------4-4-5-5-7-7--|
A------4-4-7-7-4-4------2-2-5-5-----3-3--------------5-5--------------|
E--5-5--------------3-3---------3-3-----------------------------------|

-------------------------------------------------
THE BUTTHOLE SURFERS GUITAR/BASS TAB ARCHIVE:
http://www.islandnet.com/~mustang/1401/index.html
-------------------------------------------------
Suggest correction
Give kudos to tab author, rate the tab!
1 2 3 4 5
comments
print report bad tab
guest
You may want to rate the tab now too:
select rating
Please do not post tabs as comments. Select "correction" instead!