Oops, an error
Loading. Please wait.

Something Bass Tab

589 views 1 this week
no commentswrite comment
1 2 3 4 5
3 more votes to show rating
add to favorites
launch autoscroll
font size
0
reset
guitar tuner
Autoscroll
slow
fast
+/-
esc
set tempo
stop
Help us to improve Ultimate-Guitar.com Take our survey!
×
Author
-------------------------------------------------------------------------------
			     SOMETHING - Butthole Surfers
-------------------------------------------------------------------------------

Tabbed by: Tyler J
Email: full_metal_orange AT hotmail DOT com

Tuning: Standard


intro:

G-------------------------------------------------------------------|
D-------------------------------------------------------------------|
A-------------------------------------------------------------------|
E--0---3\5-5---3\5-5-0---12\-0---3\5-5-0-0-0-0-3\5-0-0-0-0-0-0-12\--|

chorus:

G---------------------------------------------------------------------------|
D---------------------------------------------------------------------------|
A---------------------------------------------------------------------------|
E--0-0-0-3\5--0-0-5-5-5-3--0-0-0-3\5--0-0-15/-0-19/--0-0-0-3\5--0-0-5-5-5-3-|

verse:

G--------------------------------------------------------------------|
D--------------------------------------------------------------------|
A--------------------------------------------------------------------|
E--0--0--0--0--0--0--0--0--0--0--0--0--0--0--0--0--0--0-15\-0-\19/-0-|

the rest of the verses and choruses follow basically the same riffs, with
some variations.

it's interesting to note that the bassline in the chorus plays E G A while
the saxophone and guitar play D F G.

the final verses comes in as:

G------------------------------------------------------------- --------------|
D--14-14-14--14-14-14\---------------------------------15----- --------------|
A---------------------------------------------------------17\- --------------|
E-----------------------0-0-0-3-5-0--0-0-0-0-0-0-0-\17-------- --5-5-5-3-3-3-|

End:

G-------------------------------|
D------------------3-3-3-3-2-0--|
A-------------------------------|
E--0-0-0-3-5-0-0----------------|


-------------------------------------------------
THE BUTTHOLE SURFERS GUITAR/BASS TAB ARCHIVE:
http://www.islandnet.com/~mustang/1401/index.html
-------------------------------------------------
Suggest correction
Give kudos to tab author, rate the tab!
1 2 3 4 5
comments
print report bad tab
guest
You may want to rate the tab now too:
select rating
Wanna post a correction for this tab? Suggest correction