Oops, an error
Loading. Please wait.

The Colored Fbi Guy Tab

627 views 1 this week
no commentswrite comment
1 2 3 4 5
3 more votes to show rating
add to favorites
launch autoscroll
font size
0
reset
how to read this tab
guitar tuner
Autoscroll
slow
fast
+/-
esc
set tempo
stop
Help us to improve Ultimate-Guitar.com Take our survey!
×
Author
-------------------------------------------------------------------------------
                             THE COLORED FBI GUY (aka 1401) - Butthole Surfers
-------------------------------------------------------------------------------

Tabbed by: Tyler J
Email: full_metal_orange AT hotmail DOT com

Tuning: Standard


Intro:

   D        Am7      C        G      D       F        C
E----2--------0------------0-------------2-------1----------0----|
B------3--------1------1------0--------3-------1---1----1-----1--|
G--------2--------0------0------0----------2--------------0------|
D--0---------------------------------0-------3-------------------|
A-----------0--------3--------------------------------3----------|
E---------------------------------3------------------------------|

I think that's the same basic progression for the verses, but it's so
hard to tell... This is going by memory from seeing it played live.

Chorus:

E--2----1--|
B--3----1--|  back and forth between D and F.
G--2----2--|
D--0----3--|
A-------3--|
E-------1--|

Solo:

Most of the bends are really wide and often are shaken back and forth,
up and down, exaggeratedly. Or done with a trem bar.

E----------------------------------------------------------------------|
B-----------------------------------------------8-X-10--10-b10r-10~\/--|
G--7~~--------------------------------7~~~br---------------------------|
D---------7-9-10~~--9-10-9-7-------------------------------------------|
A----------------------------8~~---------------------------------------|
E----------------------------------------------------------------------|

E--10~~------------------------------------------------------------------|
B---------10-12-13~~~--13-12-10-------10-----------10--12-12-13-15b~~~~--|
G--------------------------------10~~----10-10~~---10--------------------|
D------------------------------------------------------------------------|
A------------------------------------------------------------------------|
E------------------------------------------------------------------------|

Solo over the outro:
                                          play the below notes stacatto (choppy)
E-----------------------------------------13--15--17--19--20--21--22--22brbr~~~--|
B---------------10~~----12-13~~--13-15~~-----------------------------------------|
G--7~~---10~~-----------**-------------------------------------------------------|
D-----------------------this note is almost muted -------------------------------|
A--------------------------------------------------------------------------------|
E--------------------------------------------------------------------------------|

E----------------------------------------------------------------------|
B----------------------------------------------------------------------|
G--11~~------11-11^12-11^12-12-11-9-7----------------------------------|
D---------12--------------------------7~~\--7-9-10~---9-10-9-7---------|
A--------------------------------------------------------------8~~--7--|
E----------------------------------------------------------------------|

E-----------------------------------------------------13~~~~--|
B-----------7-8-10-10br\15-15-15~~~---10-12-13-12-13----------|
G---7~~---7-7-------------------------------------------------|
D-------------------------------------------------------------|
A-------------------------------------------------------------|
E-------------------------------------------------------------|


-------------------------------------------------
THE BUTTHOLE SURFERS GUITAR/BASS TAB ARCHIVE:
http://www.islandnet.com/~mustang/1401/index.html
-------------------------------------------------
Suggest correction
Give kudos to tab author, rate the tab!
1 2 3 4 5
comments
print report bad tab
guest
You may want to rate the tab now too:
select rating
Wanna post a correction for this tab? Suggest correction