Oops, an error
Loading. Please wait.

The Revenge Of Anus Presley Bass Tab

253 views 1 this week
no commentswrite comment
1 2 3 4 5
2 more votes to show rating
add to favorites
launch autoscroll
font size
0
reset
guitar tuner
Autoscroll
slow
fast
+/-
esc
set tempo
stop
Help us to improve Ultimate-Guitar.com Take our survey!
×
Author
-------------------------------------------------------------------------------
			     THE REVENGE OF ANUS PRESLEY - Butthole Surfers
-------------------------------------------------------------------------------

Tabbed by: Tyler J
Email: full_metal_orange AT hotmail DOT com

Tuning: Standard


w/ fuzz

G-----------------------------------------18-|
D-----------------------------------16\17----|
A-----------------------------16\17----------|
E--0--0-0--0-0--0-3b--0--0-0-----------------|

G--------------------------------------------|
D--------------------------------------------|
A--------------------------------------------|
E--0--0-0--0-0--0-3b--0--0-0--0-15\-0-0-\17\-|

G-----------------------------------------18-|
D-----------------------------------16\17----|
A-----------------------------16\17----------|
E--0--0-0--0-0--0-3b--0--0-0-----------------|

G--------------------------------------------|
D--------------------------------------------|
A----------------------------------13-12-----|
E--0--0-0--0-0--0-3b--0--0-/12\--0-----------|


G-----------------------------------------17-|
D-----------------------------------16\17----|
A-----------------------------16\17----------|
E--0--0-0--0-0--0-3b--0--0-0-----------------|

G--------------------------------------------|
D--------------------------------------------|
A--------------------------------------------|
E--0--0-0--0-0--0-3b--0--0-0--0-0--0-6b------|

G---------------------|
D---------------------|
A---------------------|
E--0--0-0--0-0--0-3b--|

that's the first part of the song. there's a pause, and then they
launch into it again. the bassline for the second part is basically
the same as the first, w/ variations. and so it goes..

-------------------------------------------------
THE BUTTHOLE SURFERS GUITAR/BASS TAB ARCHIVE:
http://www.islandnet.com/~mustang/1401/index.html
-------------------------------------------------
Suggest correction
Give kudos to tab author, rate the tab!
1 2 3 4 5
comments
print report bad tab
guest
You may want to rate the tab now too:
select rating
Wanna post a correction for this tab? Suggest correction