Oops, an error
Loading. Please wait.

Tornados Bass Tab

106 views 1 this week
no commentswrite comment
1 2 3 4 5
3 more votes to show rating
add to favorites
launch autoscroll
font size
0
reset
guitar tuner
Autoscroll
slow
fast
+/-
esc
set tempo
stop
Help us to improve Ultimate-Guitar.com Take our survey!
×
Author
-------------------------------------------------------------------------------
			     TORNADOS - Butthole Surfers
-------------------------------------------------------------------------------

Tabbed by: Tyler J
Email: full_metal_orange AT hotmail DOT com

Tuning: Standard


intro:

G--------------------------------------------------------------------|
D--------------------------------------------------------------------|
A--------------------------------------------------------------------|
E--0-0-0-0-0-0-0-0-0-0-0-0-0-0-0-0-0-0-0-0-16\--3-3-5-3-3-5-3-3-3-3--|

verse:

G-----------------------------------------------------|
D-----------------------------------------------------|
A--7-7-7--------------------7-7-7---------------------|
E--------8--8-8-8-8-8-8-8-8-------8--8-8-8-8-8-8-8-8--|

G------------------------------------------------|
D------------------------------------------------|
A--7-7-7-----------------------------------------|
E--------8--8-8-8-8-8-8-8-8--3-3-4-5-4--4-4-4-4--| slide up while picking

repeat as necessary!

for the slides up from the G#, its basically random.. when you get to
the highest frets, start picking furiously at the other strings as well...

end on G#.

-------------------------------------------------
THE BUTTHOLE SURFERS GUITAR/BASS TAB ARCHIVE:
http://www.islandnet.com/~mustang/1401/index.html
-------------------------------------------------
Suggest correction
Give kudos to tab author, rate the tab!
1 2 3 4 5
comments
print report bad tab
guest
You may want to rate the tab now too:
select rating
Wanna post a correction for this tab? Suggest correction