Oops, an error
Loading. Please wait.

Ulcer Breakout bass

version 1
version 1

Whole song

Interactive

55 views 1 this week
no commentswrite comment
1 2 3 4 5
3 more votes to show rating
add to favorites
×
Save as Personal and add changes to this tab that will be seen only by you. Learn more ›
×
You can save this tab as Personal to edit and correct it or add notes. All changes will be seen only by you. Learn more »
launch autoscroll
font size
0
reset
guitar tuner
edit
Autoscroll
slow
fast
+/-
esc
set tempo
stop
Author
Difficulty
Main Riff
G|-7-7-7--10-10-10--12-12-10--12-10-------|-7-7-7--10-10-10--12-12-10--12-10-------|
D|----------------------------------12-10-|----------------------------------12-10-|
A|----------------------------------------|----------------------------------------|
E|----------------------------------------|----------------------------------------|

G|-7-7-7--10-10-10--12-12-10--12-10-------|-14-14-14-14-14-14-14-14-14-14-14-14-14-14-14-14-|
D|----------------------------------12-10-|-12-12-12-12-12-12-12-12-12-12-12-12-12-12-12-12-|
A|----------------------------------------|-------------------------------------------------|
E|----------------------------------------|-------------------------------------------------|

Verse
G|------------------------------------|------------------------------------|
D|------------------------------------|------------------------------------|
A|-3/5-5-5--3/5-5-5--3/5-5-5-5--5-5-5-|-3/5-5-5--3/5-5-5--3/5-5-5-5--5-5-5-|
E|------------------------------------|------------------------------------|

("Ever Fall In-Love With A Lie...")
G|------------------------------------|------------------------------------|
D|------------------------------------|------------------------------------|
A|-3/5-5-5--3/5-5-5--3/5-5-5-5--5-5-5-|-3/5-5-5--3/5-5-5--3/5-5-5-5--5-5-5-|
E|------------------------------------|------------------------------------|

G|------------------------------------|------------------------------------|
D|------------------------------------|------------------------------------|
A|-3/5-5-5--3/5-5-5--3/5-5-5-5--5-5-5-|-3/5-5-5--3/5-5-5--3/5-5-5-5--5-5-5-|
E|------------------------------------|------------------------------------|

Chorus ("Got To Be At Least 500 Inches...")
G|-----------------------------------------------------------------------|
D|-----------------------------------------------------------------------|
A|-------------------3/5-5-5--3/5-5-5--3/5-5-5-5--5-5-5------------------|
E|-3-3-3-3--1-1-1-1-------------------------------------3-3-3-3--1-1-1-1-|

Verse
G|------------------------------------|------------------------------------|
D|------------------------------------|------------------------------------|
A|-3/5-5-5--3/5-5-5--3/5-5-5-5--5-5-5-|-3/5-5-5--3/5-5-5--3/5-5-5-5--5-5-5-|
E|------------------------------------|------------------------------------|

("Ever Had A Feelin' Of Pleasure...")
G|------------------------------------|------------------------------------|
D|------------------------------------|------------------------------------|
A|-3/5-5-5--3/5-5-5--3/5-5-5-5--5-5-5-|-3/5-5-5--3/5-5-5--3/5-5-5-5--5-5-5-|
E|------------------------------------|------------------------------------|

G|------------------------------------|------------------------------------|
D|------------------------------------|------------------------------------|
A|-3/5-5-5--3/5-5-5--3/5-5-5-5--5-5-5-|-3/5-5-5--3/5-5-5--3/5-5-5-5--5-5-5-|
E|------------------------------------|------------------------------------|

Chorus ("Got To Be At Least 500 Inches...")
G|-----------------------------------------------------------------------|
D|-----------------------------------------------------------------------|
A|-------------------3/5-5-5--3/5-5-5--3/5-5-5-5--5-5-5------------------|
E|-3-3-3-3--1-1-1-1-------------------------------------3-3-3-3--1-1-1-1-|

Bridge
G|-7-7-7--10-10-10--12-12-10--12-10-------|-7-7-7--10-10-10--12-12-10--12-10-------|
D|----------------------------------12-10-|----------------------------------12-10-|
A|----------------------------------------|----------------------------------------|
E|----------------------------------------|----------------------------------------|
                                                                         
G|-7-7-7--10-10-10--12-12-10--12-10-------|-7-7-7--10-10-10--12-12-12--12b-12b-12b-10-|
D|----------------------------------12-10-|-------------------------------------------|
A|----------------------------------------|-------------------------------------------|
E|----------------------------------------|-------------------------------------------|

G|-7-7-7--10-10-10--12-12-10--12-10-------|-7-7-7--10-10-10--12-12-10--12-10-------|
D|----------------------------------12-10-|----------------------------------12-10-|
A|----------------------------------------|----------------------------------------|
E|----------------------------------------|----------------------------------------|

G|-7-7-7--10-10-10--12-12-10--12-10-------|-14-14-14-14-14-14-14-14-14-14-14-14-14-14-14-14-|
D|----------------------------------12-10-|-12-12-12-12-12-12-12-12-12-12-12-12-12-12-12-12-|
A|----------------------------------------|-------------------------------------------------|
E|----------------------------------------|-------------------------------------------------|

Solo
G|------------------------------------|------------------------------------|
D|------------------------------------|------------------------------------|
A|-3/5-5-5--3/5-5-5--3/5-5-5-5--5-5-5-|-3/5-5-5--3/5-5-5--3/5-5-5-5--5-5-5-|
E|------------------------------------|------------------------------------|

G|------------------------------------|------------------------------------|
D|------------------------------------|------------------------------------|
A|-3/5-5-5--3/5-5-5--3/5-5-5-5--5-5-5-|-3/5-5-5--3/5-5-5--3/5-5-5-5--5-5-5-|
E|------------------------------------|------------------------------------|

G|------------------------------------|------------------------------------|
D|------------------------------------|------------------------------------|
A|-3/5-5-5--3/5-5-5--3/5-5-5-5--5-5-5-|-3/5-5-5--3/5-5-5--3/5-5-5-5--5-5-5-|
E|------------------------------------|------------------------------------|

G|------------------------------------|------------------------------------|
D|------------------------------------|------------------------------------|
A|-3/5-5-5--3/5-5-5--3/5-5-5-5--5-5-5-|-3/5-5-5--3/5-5-5--3/5-5-5-5--5-5-5-|
E|------------------------------------|------------------------------------|

G|-----------------------------------------------------------------------|
D|-----------------------------------------------------------------------|
A|-------------------3/5-5-5--3/5-5-5--3/5-5-5-5--5-5-5------------------|
E|-3-3-3-3--1-1-1-1-------------------------------------3-3-3-3--1-1-1-1-|

Main Riff
G|-7-7-7--10-10-10--12-12-10--12-10-------|-7-7-7--10-10-10--12-12-10--12-10-------|
D|----------------------------------12-10-|----------------------------------12-10-|
A|----------------------------------------|----------------------------------------|
E|----------------------------------------|----------------------------------------|

G|-7-7-7--10-10-10--12-12-10--12-10-------|-14-14-14-14-14-14-14-14-14-14-14-14-14-14-14-14-|
D|----------------------------------12-10-|-12-12-12-12-12-12-12-12-12-12-12-12-12-12-12-12-|
A|----------------------------------------|-------------------------------------------------|
E|----------------------------------------|-------------------------------------------------|

Verse ("Ever Fall In-Love With A Chevy...")
G|------------------------------------|------------------------------------|
D|------------------------------------|------------------------------------|
A|-3/5-5-5--3/5-5-5--3/5-5-5-5--5-5-5-|-3/5-5-5--3/5-5-5--3/5-5-5-5--5-5-5-|
E|------------------------------------|------------------------------------|

G|------------------------------------|------------------------------------|
D|------------------------------------|------------------------------------|
A|-3/5-5-5--3/5-5-5--3/5-5-5-5--5-5-5-|-3/5-5-5--3/5-5-5--3/5-5-5-5--5-5-5-|
E|------------------------------------|------------------------------------|

Chorus ("Got To Be At Least 500 Inches...")
G|-----------------------------------------------------------------------|
D|-----------------------------------------------------------------------|
A|-------------------3/5-5-5--3/5-5-5--3/5-5-5-5--5-5-5------------------|
E|-3-3-3-3--1-1-1-1-------------------------------------3-3-3-3--1-1-1-1-|

Verse 
G|------------------------------------|------------------------------------|
D|------------------------------------|------------------------------------|
A|-3/5-5-5--3/5-5-5--3/5-5-5-5--5-5-5-|-3/5-5-5--3/5-5-5--3/5-5-5-5--5-5-5-|
E|------------------------------------|------------------------------------|

("Ever Fall In-Love With A Lie..")
G|------------------------------------|------------------------------------|
D|------------------------------------|------------------------------------|
A|-3/5-5-5--3/5-5-5--3/5-5-5-5--5-5-5-|-3/5-5-5--3/5-5-5--3/5-5-5-5--5-5-5-|
E|------------------------------------|------------------------------------|

G|------------------------------------|------------------------------------|
D|------------------------------------|------------------------------------|
A|-3/5-5-5--3/5-5-5--3/5-5-5-5--5-5-5-|-3/5-5-5--3/5-5-5--3/5-5-5-5--5-5-5-|
E|------------------------------------|------------------------------------|

Chorus ("Got To Be At Least 500 Inches...")
G|-----------------------------------------------------------------------|
D|-----------------------------------------------------------------------|
A|-------------------3/5-5-5--3/5-5-5--3/5-5-5-5--5-5-5------------------|
E|-3-3-3-3--1-1-1-1-------------------------------------3-3-3-3--1-1-1-1-|

Main Riff
G|-7-7-7--10-10-10--12-12-10--12-10-------|-7-7-7--10-10-10--12-12-10--12-10-------|
D|----------------------------------12-10-|----------------------------------12-10-|
A|----------------------------------------|----------------------------------------|
E|----------------------------------------|----------------------------------------|

G|-7-7-7--10-10-10--12-12-10--12-10-------|-14-14-14-14-14-14-14-14-14-14-14-14-14-14-14-14-|
D|----------------------------------12-10-|-12-12-12-12-12-12-12-12-12-12-12-12-12-12-12-12-|
A|----------------------------------------|-------------------------------------------------|
E|----------------------------------------|-------------------------------------------------|

G|-14-14-14-14-14-14-14-14-14-14-14-14-14-14-14-14-|-14-14-14-14-14-14-14-14-14-14-14-14-14-14-14-14-|
D|-12-12-12-12-12-12-12-12-12-12-12-12-12-12-12-12-|-12-12-12-12-12-12-12-12-12-12-12-12-12-12-12-12-|
A|-------------------------------------------------|-------------------------------------------------|
E|-------------------------------------------------|-------------------------------------------------|

G|-14-14-14-14-14-14-14-14-14-14-14-14-14-14-14-14-|-14-14-14-14-14-14-14-14-14-14-14-14-14-14-14-14-|
D|-12-12-12-12-12-12-12-12-12-12-12-12-12-12-12-12-|-12-12-12-12-12-12-12-12-12-12-12-12-12-12-12-12-|
A|-------------------------------------------------|-------------------------------------------------|
E|-------------------------------------------------|-------------------------------------------------|



***********************************

| /   Slide-up
| b   Bend

***********************************

            
            
Suggest correction
Creating personal tab
Creating personal tab
You can edit any tab online and save it as your Personal.

You can edit, replace or remove any tab part or add personal notes – all changes will be seen only by you.

Personal tabs can be accessed anytime from any device, even offline.
Learn more »
Give kudos to tab author, rate the tab!
1 2 3 4 5
comments
print report bad tab
guest
You may want to rate the tab now too:
select rating
Wanna post a correction for this tab? Suggest correction