Oops, an error
Loading. Please wait.

Who Was In My Room Last Night Bass Tab

version 1
version 1

Whole song

Interactive

4,532 views 1 this week
2 commentsread comments
1 2 3 4 5
1 last vote to show rating
add to favorites
launch autoscroll
font size
0
reset
guitar tuner
Autoscroll
slow
fast
+/-
esc
set tempo
stop
Help us to improve Ultimate-Guitar.com Take our survey!
×
Author
Tuning
D A D G B E
Tuning: Drop D


*You rest for a long time then start playing this.
|----------------------------------|
|----------------------------------|
|----------------------------------|
|-0-0-3----0-0-3----0-0-3----0-0-3-|x3

*Drums enter here.
|-------|
|-------|
|-------|
|-0-0-3-|

|----------------------------------|
|----------------------------------|
|----------------------------------|
|-0-0-3----0-0-3----0-0-3----0-0-3-|x3


|-------------------------------------------------------|
|-----------------------------3-5-3-----------3-5-3-----|
|-3-5---3-5---3-5---3-5---3-5-------5-3-5-3-5-------5-3-|
|-------------------------------------------------------|x2

|---------------------------------------------------------|
|---------------------------------------------------------|
|-3-5---3-5---3-5---3-5-------------------7-7-7-7---------|
|-------------------------8-8-8-8-8-8-8-8---------3-3-3-3-|


|-------------|
|-------------|
|-3-5---3-5---|
|-------------|x4

|-----------------|
|-----------------|
|-----------------|
|-0-0-3-5-3-0-0-0-|x4


|-------------------------------------------------------|
|-------3---------------------3-5-3-----------3-5-3-----|
|-3-5-----5---3-5---3-5---3-5-------5-3-5-3-5-------5-3-|
|-------------------------------------------------------|

|-------------------------------------------------------|
|-----------------------------3-5-3-----------3-5-3-----|
|-3-5---3-5---3-5---3-5---3-5-------5-3-5-3-5-------5-3-|
|-------------------------------------------------------|


|-----------------|
|-----------------|
|-----------------|
|-0-0-3-5-3-0-0-0-|x4


|-------|
|-------|
|-------|
|-0-0-3-|

|----------------------------------|
|----------------------------------|
|----------------------------------|
|-0-0-3----0-0-3----0-0-3----0-0-3-|x5
Suggest correction
Give kudos to tab author, rate the tab!
1 2 3 4 5
comments
print report bad tab
2 comments total.
0 reply
daniel l18 10 Feb 08, 2008 06:06 PM

good job but its a little hard trying to time it the way you did it but very good tab.

0 reply
carrotcake 1,997 Feb 08, 2008 10:05 PM

Sorry bout the timing man, thanks for sayin' it's good though!

:D

guest
You may want to rate the tab now too:
select rating
Wanna post a correction for this tab? Suggest correction