Oops, an error
Loading. Please wait.

Who Was In My Room Last Night Tab

version 1
version 1

Whole song

Interactive

46,832 views 60 this week
17 commentsread comments
1 2 3 4 5
excellent!
x 37
add to favorites
launch autoscroll
font size
0
reset
how to read this tab
guitar tuner
Tab Pro tools
  • play this tab
  • loop segment
  • change instrument
  • show fretboard
  • metronome
×
Best way to learn
"Who Was In My Room Last Night"
Autoscroll
slow
fast
+/-
esc
set tempo
stop
Contributor
Tuning
D A D G B E
Who Was In My Room Last Night? - Butthole Surfers

Tabbed by Jeff Orom

Tuning:Drop D

/=Slide Up
\-Slide Down
h=Hammer-on
p=Pull-off
b=Bend
~=vibrato



Intro/Verse
e|-----------------|-----------------|
B|-----------------|-----------------|
G|-----------------|-----------------|
D|-----------------|-----------------|
A|-----------------|-----------------|
D|-0-0-3-5-3-0-0-0-|-0-0-3-5-3-0-0-0-| x6


-Drums begin-


e|-----------------|-----------------|
B|-----------------|-----------------|
G|-----------------|-----------------|
D|-----------------|-----------------|
A|-----------------|-----------------|
D|-0-0-3-5-3-0-0-0-|-0-0-3-5-3-0-0-0-| x2


-Lyrics Begin-


e|-----------------|-----------------|
B|-----------------|-----------------|
G|-----------------|-----------------|
D|-----------------|-----------------|
A|-----------------|-----------------|
D|-0-0-3-5-3-0-0-0-|-0-0-3-5-3-0-0-0-| x8


Chorus
e|-------------------------|-----------------|-----------------|
B|-------------------------|-----------------|-----------------|
G|-5/7---5/7---5/7---5/7---|-----------------|-----------------|
D|-5/7---5/7---5/7---5/7---|-----3-5-3-------|-----3-5-3-------|
A|-3/5---3/5---3/5---3/5---|-3-5-------5-3-5-|-3-5-------5-3-5-|
D|-------------------------|-----------------|-----------------| x2


Solo
e|-------------------------|---------------------------|-------------------------|
B|-------------------------|---------------------------|-------------------------|
G|-5/7---5/7---5/7---5/7---|---5-7--10-7-10-7-10-12-13-|-10-12-13p12p10----10----|
D|-5/7---5/7---5/7---5/7---|-7-------------------------|----------------12----12-|
A|-3/5---3/5---3/5---3/5---|---------------------------|-------------------------|
D|-------------------------|---------------------------|-------------------------|

e|----------------------10-|---------------------------------|-------------------------|
B|-7999-7999-7999-7999--7--|---------6-8-6-8-8-6-----------6-|-9p8p6---9p8p6---6-6-6---|
G|-7999-7999-7999-7999--7--|-----5-7-------------7-5---5-7---|-------7-------7-------7-|
D|-------------------------|-5-7---------------------7-------|-------------------------|
A|-------------------------|---------------------------------|-------------------------|
D|-------------------------|---------------------------------|-------------------------|

e|--------------------------------------|
B|---------6-8-6-8-8-6-----------6-8b9~-|
G|-----5-7-------------7-5---5-7--------|
D|-5-7---------------------7------------|
A|--------------------------------------|
D|--------------------------------------|

e|-------------------------|-----------------|-----------------|
B|-------------------------|-----------------|-----------------|
G|-5/7---10\7---5/7---5/7--|-----------------|-----------------|
D|-5/7---10\7---5/7---5/7--|-----3-5-3-------|-----3-5-3-------|
A|-3/5----8\5---3/5---3/5--|-3-5-------5-3-5-|-3-5-------5-3-5-|
D|-------------------------|-----------------|-----------------|

e|--------------------------------------------------------------|
B|-----------------------9b10-b10-b10-b10-b10-b10-b10-b10-b10-6-|
G|-5/7---5/7---5/7----------------------------------------------|
D|-5/7---5/7---5/7----------------------------------------------|
A|-3/5---3/5---3/5---3-5----------------------------------------|
D|--------------------------------------------------------------|


Verse
e|-----------------|-----------------|
B|-----------------|-----------------|
G|-----------------|-----------------|
D|-----------------|-----------------|
A|-----------------|-----------------|
D|-0-0-3-5-3-0-0-0-|-0-0-3-5-3-0-0-0-| x8


Chorus
e|-------------------------|-----------------|-----------------|
B|-------------------------|-----------------|-----------------|
G|-5/7---5/7---5/7---5/7---|-----------------|-----------------|
D|-5/7---5/7---5/7---5/7---|-----3-5-3-------|-----3-5-3-------|
A|-3/5---3/5---3/5---3/5---|-3-5-------5-3-5-|-3-5-------5-3-5-|
D|-------------------------|-----------------|-----------------| x3


Solo2
e|-------------------------|---------------------------|-------------------------|
B|-------------------------|---------------------------|-------------------------|
G|-5/7---5/7---5/7---5/7---|---5-7--10-7-10-7-10-12-13-|-10-12-13p12p10----10----|
D|-5/7---5/7---5/7---5/7---|-7-------------------------|----------------12----12-|
A|-3/5---3/5---3/5---3/5---|---------------------------|-------------------------|
D|-------------------------|---------------------------|-------------------------|

e|-----------10-|-------------------------------|
B|-7999-7999-7--|-7b9b8b9b8b9b8b9b8b9b8b9b8b9\5-| Let ring, Slowly
G|-7999-7999-7--|-7b9b8b9b8b9b8b9b8b9b8b9b8b9\5-| press tremolo bar down
D|--------------|-------------------------------|
A|--------------|-------------------------------|
D|--------------|-------------------------------|


Verse
e|-----------------|-----------------|
B|-----------------|-----------------|
G|-----------------|-----------------|
D|-----------------|-----------------|
A|-----------------|-----------------|
D|-0-0-3-5-3-0-0-0-|-0-0-3-5-3-0-0-0-| x8


Outro
e|-------------------------|---------------------------|-------------------------|
B|-------------------------|---------------------------|-------------------------|
G|-5/7---5/7---5/7---5/7---|---5-7--10-7-10-7-10-12-13-|-10-12-13p12p10----10----|
D|-5/7---5/7---5/7---5/7---|-7-------------------------|----------------12----12-|
A|-3/5---3/5---3/5---3/5---|---------------------------|-------------------------|
D|-------------------------|---------------------------|-------------------------|

e|----------------------10-|---|
B|-7999-7999-7999-7999--7--|---|
G|-7999-7999-7999-7999--7--|---|
D|-------------------------|-0-| Let ring
A|-------------------------|-0-| Pickslide on two bottom strings
D|-------------------------|-0-|
comments
print report bad tab
17 comments total. Showing first comments.
0 reply
Sir.sleepsalot wrote on January 15 2007, 06:45 pm

Great job on this tab. It's easy and sounds good.

0 reply
mental_zer0 wrote on January 16 2007, 02:59 pm

great tab.

0 reply
elmatto777 wrote on March 20 2007, 01:12 am

easy tab fun to play just awesome thanks for posting i love this song and now i love playing it

I want to post or [tab]
guest
You may want to rate the tab now too:
select rating
Please do not post tabs as comments. Select "correction" instead!