Oops, an error
Loading. Please wait.

Wichita Cathedral Bass Tab

398 views 1 this week
no commentswrite comment
1 2 3 4 5
please rate
add to favorites
launch autoscroll
font size
0
reset
guitar tuner
Autoscroll
slow
fast
+/-
esc
set tempo
stop
Help us to improve Ultimate-Guitar.com Take our survey!
×
Author
-------------------------------------------------------------------------------
			     WICHITA CATHEDRAL - Butthole Surfers
-------------------------------------------------------------------------------

Tabbed by: Tyler J
Email: full_metal_orange AT hotmail DOT com

Tuning: Standard

intro:

G--0-0-0-0-0-0-0-0-0-0-0-0---------0-0-0-0-----|
D--------------7-7-7-7-7-7-0-0-0-0-0-0-0-0-0-0-|
A----------------------------------------------|
E----------------------------------------------|

pick strings very fast, listen to the song for timing

riff:

G------ ------------------------------------|
D------ ------------------------------------|
A--5-7- ------5---5---5---------5---\9-0-7--|
E------ -0-\7---7---7---7--0-\7---7---------|
        repeat....

final time before vocals come in, go up to the 21st fret on the G string
at the end of the riff.

vary the end of the riff each time its played in the verse.

chorus:

G--7-7-7-7-7-7-| etc
D--0-0-0-0-0-0-| pick fast
A--------------|
E--------------|

chorus ends on:

G-----------|
D-----------|
A-----5-7---|
E--\7-----0-|

thats about it!

-------------------------------------------------
THE BUTTHOLE SURFERS GUITAR/BASS TAB ARCHIVE:
http://www.islandnet.com/~mustang/1401/index.html
-------------------------------------------------
Suggest correction
Give kudos to tab author, rate the tab!
1 2 3 4 5
comments
print report bad tab
guest
You may want to rate the tab now too:
select rating
Wanna post a correction for this tab? Suggest correction