Oops, an error
Loading. Please wait.

Witchita Cathedral Bass Tab

93 views 1 this week
no commentswrite comment
1 2 3 4 5
please rate
add to favorites
launch autoscroll
font size
0
reset
guitar tuner
Autoscroll
slow
fast
+/-
esc
set tempo
stop
Help us to improve Ultimate-Guitar.com Take our survey!
×
Author
Key
* = when he gos high just vary  it up between the high notes on the 4th string

> = go directly into main riff

Intro
G--0-0-0-0-0-0-0-0-0-0-0-0-0-0-0-0-0-0-0-0-0-0->|
D----5-5-5-5-5-5-5-5-5-5-5-3-3-3-3-3-3-3-3-3-0->|
A-----------------------------------------------|
E-----------------------------------------------|

Main Riff
G---------------------------------*------------|
D---------------------------------*------------|
A--5-5-5-5-5-5/-7-7/-9-/-7-7~-----*------------|
E-0-0-0-0-0-0--0-0--0---0---------*------------|

Intermission/chorus thing
you'll hear this about 0:48 in the song the first time
G----------------------------------------------|
D-0-0-0-0-0-0-0-0------------------------------|
A-5-5-5-5-5-5-5-5------------------------------|
E----------------------------------------------|

End song on

G--------------------|
D--------------------|
A----5---7-----------|
E--0-------0---------|
Suggest correction
Give kudos to tab author, rate the tab!
1 2 3 4 5
comments
print report bad tab
guest
You may want to rate the tab now too:
select rating
Please do not post tabs as comments. Select "correction" instead!