Oops, an error
Loading. Please wait.

Boredom tab

version 1
version 1

Whole song

Interactive

12,215 views 18 this week
2 commentsread comments
1 2 3 4 5
x 14
add to favorites
×
Save as Personal and add changes to this tab that will be seen only by you. Learn more ›
×
You can save this tab as Personal to edit and correct it or add notes. All changes will be seen only by you. Learn more »
launch autoscroll
font size
0
reset
how to read this tab
guitar tuner
edit
Autoscroll
slow
fast
+/-
esc
set tempo
stop
Author
Difficulty
Bordom - Buzzcocks
Tabbed by:steve
Email:allchavsrgay@hotmail.com
Tuning:Standard

[Intro/Verse]
e|----------------------------------------------------------------|
B|----------------------------------------------------------------|
G|----------------------------------------------------------------|
D|-2-2-2-5-7-7-7-7-7-5-9-9-9-9-9-9-9-9-9-9------------------------|
A|-2-2-2-5-7-7-7-7-7-5-9-9-9-9-9-9-9-9-9-9------------------------|
E|-0-0-0-3-5-5-5-5-5-3-7-7-7-7-7-7-7-7-7-7------------------------|x4

[Pre-chorus]
e|-----------------------------------------------------------------|
B|-----------------------------------------------------------------|
G|-5-5-5-5-5-5-5-5-5-5-5-5-5-5-5-5-4-4-4-4-4-4-4-4-4-4-4-4-4-4-4-4-|
D|-5-5-5-5-5-5-5-5-5-5-5-5-5-5-5-5-4-4-4-4-4-4-4-4-4-4-4-4-4-4-4-4-|
A|-3-3-3-3-3-3-3-3-3-3-3-3-3-3-3-3-2-2-2-2-2-2-2-2-2-2-2-2-2-2-2-2-|
E|-----------------------------------------------------------------|x1

[Chorus]
e|--------------------------------------------------------|
B|--------------------------------------------------------|
G|-10101010101010108-8-8-8-8-8-8-8------------------------|
D|-10101010101010108-8-8-8-8-8-8-8-8-8-8-8-8-8-8-8-8------|
A|-8-8-8-8-8-8-8-8-6-6-6-6-6-6-6-6-8-8-8-8-8-8-8-8-8------|
E|---------------------------------6-6-6-6-6-6-6-6-6------|x1
[Verse]
e|----------------------------------------------------------------|
B|----------------------------------------------------------------|
G|----------------------------------------------------------------|
D|-2-2-2-5-7-7-7-7-7-5-9-9-9-9-9-9-9-9-9-9------------------------|
A|-2-2-2-5-7-7-7-7-7-5-9-9-9-9-9-9-9-9-9-9------------------------|
E|-0-0-0-3-5-5-5-5-5-3-7-7-7-7-7-7-7-7-7-7------------------------|x3

[Pre-chorus]
e|-----------------------------------------------------------------|
B|-----------------------------------------------------------------|
G|-5-5-5-5-5-5-5-5-5-5-5-5-5-5-5-5-4-4-4-4-4-4-4-4-4-4-4-4-4-4-4-4-|
D|-5-5-5-5-5-5-5-5-5-5-5-5-5-5-5-5-4-4-4-4-4-4-4-4-4-4-4-4-4-4-4-4-|
A|-3-3-3-3-3-3-3-3-3-3-3-3-3-3-3-3-2-2-2-2-2-2-2-2-2-2-2-2-2-2-2-2-|
E|-----------------------------------------------------------------|x1

[Chorus]
e|--------------------------------------------------------|
B|--------------------------------------------------------|
G|-10101010101010108-8-8-8-8-8-8-8------------------------|
D|-10101010101010108-8-8-8-8-8-8-8-8-8-8-8-8-8-8-8-8------|
A|-8-8-8-8-8-8-8-8-6-6-6-6-6-6-6-6-8-8-8-8-8-8-8-8-8------|
E|---------------------------------6-6-6-6-6-6-6-6-6------|x1

[Verse]
e|----------------------------------------------------------------|
B|----------------------------------------------------------------|
G|----------------------------------------------------------------|
D|-2-2-2-5-7-7-7-7-7-5-9-9-9-9-9-9-9-9-9-9------------------------|
A|-2-2-2-5-7-7-7-7-7-5-9-9-9-9-9-9-9-9-9-9------------------------|
E|-0-0-0-3-5-5-5-5-5-3-7-7-7-7-7-7-7-7-7-7------------------------|x3

[Pre-chorus]
e|-----------------------------------------------------------------|
B|-----------------------------------------------------------------|
G|-5-5-5-5-5-5-5-5-5-5-5-5-5-5-5-5-4-4-4-4-4-4-4-4-4-4-4-4-4-4-4-4-|
D|-5-5-5-5-5-5-5-5-5-5-5-5-5-5-5-5-4-4-4-4-4-4-4-4-4-4-4-4-4-4-4-4-|
A|-3-3-3-3-3-3-3-3-3-3-3-3-3-3-3-3-2-2-2-2-2-2-2-2-2-2-2-2-2-2-2-2-|
E|-----------------------------------------------------------------|x1

[Chorus]
e|--------------------------------------------------------|
B|--------------------------------------------------------|
G|-10101010101010108-8-8-8-8-8-8-8------------------------|
D|-10101010101010108-8-8-8-8-8-8-8-8-8-8-8-8-8-8-8-8------|
A|-8-8-8-8-8-8-8-8-6-6-6-6-6-6-6-6-8-8-8-8-8-8-8-8-8------|
E|---------------------------------6-6-6-6-6-6-6-6-6------|x1

[Verse]
e|----------------------------------------------------------------|
B|----------------------------------------------------------------|
G|----------------------------------------------------------------|
D|-2-2-2-5-7-7-7-7-7-5-9-9-9-9-9-9-9-9-9-9------------------------|
A|-2-2-2-5-7-7-7-7-7-5-9-9-9-9-9-9-9-9-9-9------------------------|
E|-0-0-0-3-5-5-5-5-5-3-7-7-7-7-7-7-7-7-7-7------------------------|x2

[Pre-chorus]
e|-----------------------------------------------------------------|
B|-----------------------------------------------------------------|
G|-5-5-5-5-5-5-5-5-5-5-5-5-5-5-5-5-4-4-4-4-4-4-4-4-4-4-4-4-4-4-4-4-|
D|-5-5-5-5-5-5-5-5-5-5-5-5-5-5-5-5-4-4-4-4-4-4-4-4-4-4-4-4-4-4-4-4-|
A|-3-3-3-3-3-3-3-3-3-3-3-3-3-3-3-3-2-2-2-2-2-2-2-2-2-2-2-2-2-2-2-2-|
E|-----------------------------------------------------------------|x1

[Chorus]
e|--------------------------------------------------------|
B|--------------------------------------------------------|
G|-10101010101010108-8-8-8-8-8-8-8------------------------|
D|-10101010101010108-8-8-8-8-8-8-8-8-8-8-8-8-8-8-8-8------|
A|-8-8-8-8-8-8-8-8-6-6-6-6-6-6-6-6-8-8-8-8-8-8-8-8-8------|
E|---------------------------------6-6-6-6-6-6-6-6-6------|x1

[Verse]
e|----------------------------------------------------------------|
B|----------------------------------------------------------------|
G|----------------------------------------------------------------|
D|-2-2-2-5-7-7-7-7-7-5-9-9-9-9-9-9-9-9-9-9------------------------|
A|-2-2-2-5-7-7-7-7-7-5-9-9-9-9-9-9-9-9-9-9------------------------|
E|-0-0-0-3-5-5-5-5-5-3-7-7-7-7-7-7-7-7-7-7------------------------|x2

[Pre-chorus]
e|-----------------------------------------------------------------|
B|-----------------------------------------------------------------|
G|-5-5-5-5-5-5-5-5-5-5-5-5-5-5-5-5-4-4-4-4-4-4-4-4-4-4-4-4-4-4-4-4-|
D|-5-5-5-5-5-5-5-5-5-5-5-5-5-5-5-5-4-4-4-4-4-4-4-4-4-4-4-4-4-4-4-4-|
A|-3-3-3-3-3-3-3-3-3-3-3-3-3-3-3-3-2-2-2-2-2-2-2-2-2-2-2-2-2-2-2-2-|
E|-----------------------------------------------------------------|x1

[Chorus]
e|--------------------------------------------------------|
B|--------------------------------------------------------|
G|-10101010101010108-8-8-8-8-8-8-8------------------------|
D|-10101010101010108-8-8-8-8-8-8-8-8-8-8-8-8-8-8-8-8------|
A|-8-8-8-8-8-8-8-8-6-6-6-6-6-6-6-6-8-8-8-8-8-8-8-8-8------|
E|---------------------------------6-6-6-6-6-6-6-6-6------|x1

[Verse]
e|----------------------------------------------------------------|
B|----------------------------------------------------------------|
G|----------------------------------------------------------------|
D|-2-2-2-5-7-7-7-7-7-5-9-9-9-9-9-9-9-9-9-9------------------------|
A|-2-2-2-5-7-7-7-7-7-5-9-9-9-9-9-9-9-9-9-9------------------------|
E|-0-0-0-3-5-5-5-5-5-3-7-7-7-7-7-7-7-7-7-7------------------------|x2

[Pre-chorus]
e|-----------------------------------------------------------------|
B|-----------------------------------------------------------------|
G|-5-5-5-5-5-5-5-5-5-5-5-5-5-5-5-5-4-4-4-4-4-4-4-4-4-4-4-4-4-4-4-4-|
D|-5-5-5-5-5-5-5-5-5-5-5-5-5-5-5-5-4-4-4-4-4-4-4-4-4-4-4-4-4-4-4-4-|
A|-3-3-3-3-3-3-3-3-3-3-3-3-3-3-3-3-2-2-2-2-2-2-2-2-2-2-2-2-2-2-2-2-|
E|-----------------------------------------------------------------|x1

[Chorus]
e|--------------------------------------------------------|
B|--------------------------------------------------------|
G|-10101010101010108-8-8-8-8-8-8-8------------------------|
D|-10101010101010108-8-8-8-8-8-8-8-8-8-8-8-8-8-8-8-8------|
A|-8-8-8-8-8-8-8-8-6-6-6-6-6-6-6-6-8-8-8-8-8-8-8-8-8------|
E|---------------------------------6-6-6-6-6-6-6-6-6------|x1

[Verse]
e|----------------------------------------------------------------|
B|----------------------------------------------------------------|
G|----------------------------------------------------------------|
D|-2-2-2-5-7-7-7-7-7-5-9-9-9-9-9-9-9-9-9-9------------------------|
A|-2-2-2-5-7-7-7-7-7-5-9-9-9-9-9-9-9-9-9-9------------------------|
E|-0-0-0-3-5-5-5-5-5-3-7-7-7-7-7-7-7-7-7-7------------------------|x2

[Pre-chorus]
e|-----------------------------------------------------------------|
B|-----------------------------------------------------------------|
G|-5-5-5-5-5-5-5-5-5-5-5-5-5-5-5-5-4-4-4-4-4-4-4-4-4-4-4-4-4-4-4-4-|
D|-5-5-5-5-5-5-5-5-5-5-5-5-5-5-5-5-4-4-4-4-4-4-4-4-4-4-4-4-4-4-4-4-|
A|-3-3-3-3-3-3-3-3-3-3-3-3-3-3-3-3-2-2-2-2-2-2-2-2-2-2-2-2-2-2-2-2-|
E|-----------------------------------------------------------------|x1

[Chorus]
e|--------------------------------------------------------|
B|--------------------------------------------------------|
G|-10101010101010108-8-8-8-8-8-8-8------------------------|
D|-10101010101010108-8-8-8-8-8-8-8-8-8-8-8-8-8-8-8-8------|
A|-8-8-8-8-8-8-8-8-6-6-6-6-6-6-6-6-8-8-8-8-8-8-8-8-8------|
E|---------------------------------6-6-6-6-6-6-6-6-6------|x1

[Small solo]
e|------7---7---7---7----------------------------7---6------|
B|----5---5---5---5-----repeat x times---end---5---5--------|
G|----------------------------------------------------------|
D|----------------------------------------------------------|
A|----------------------------------------------------------|
E|----------------------------------------------------------|

            
            
Suggest correction
Creating personal tab
Creating personal tab
You can edit any tab online and save it as your Personal.

You can edit, replace or remove any tab part or add personal notes – all changes will be seen only by you.

Personal tabs can be accessed anytime from any device, even offline.
Learn more »
comments
print report bad tab
2 comments total.
+4 reply
budameat 540 May 27, 2012 05:38 AM

The Choru is wrong.

My try on it:

Chorus
e|--------------------------------------------------------
B|--------------------------------------------------------
G|-10101010101010108-8-8-8-8-8-8-8------------------------
D|-10101010101010108-8-8-8-8-8-8-8-8-8-8-8-8-8-8-8-8------
A|-8-8-8-8-8-8-8-8-6-6-6-6-6-6-6-6-8-8-8-8-8-8-8-8-8------
E|---------------------------------6-6-6-6-6-6-6-6-6------

Small solo:

e|------7---7---7---7----------------------------7---6------
B|----5---5---5---5-----repeat x times---end---5---5--------

0 reply
cheesedips 20 Oct 16, 2014 11:47 AM

veryy nice veryyy swaggg

guest
You may want to rate the tab now too:
select rating
Wanna post a correction for this tab? Suggest correction