Oops, an error
Loading. Please wait.

Real World bass

1,085 views 1 this week
1 commentread comment
1 2 3 4 5
1 last vote to show rating
add to favorites
×
Save as Personal and add changes to this tab that will be seen only by you. Learn more ›
×
You can save this tab as Personal to edit and correct it or add notes. All changes will be seen only by you. Learn more »
launch autoscroll
font size
0
reset
guitar tuner
edit
Autoscroll
slow
fast
+/-
esc
set tempo
stop
Intro

 G:------------------------------------|
 D:------------------------------------|
 A:---0---4-0-4--5--4--5--7------------|
 E:---------------------------0--------|

Verse

 G:------------------------------------|
 D:----------------4-------------------|
 A:---0--4-0-4-545---5--7--(5)---------|    (5)= Ghost note (played lightly)
 E:------------------------------------|

Pre-Chorus

 G:------------------------------------|
 D:------------------------------------|
 A:-4444444444444444-55555555-77777777-|
 E:------------------------------------|

Chorus

 G:------------------------------------|
 D:------------------------------------|
 A:-----7---7------6---6---------------|
 E:--5----5-----4----4-----------------|

Post-Chorus

 G:------------------------------------|
 D:------------------------------------|
 A:-5555555555555555-7777777777777777--|
 E:------------------------------------|

  Intro x2
  Verse x16

  Pre-Chorus x1
  Chorus x2
  Post-Chorus x1

  Verse x4

  Pre-Chorus x1
  Chorus x2
  Post-Chorus x1

  Verse x4

  Pre-Chorus x1
  Chorus x2
  Post-Chorus x1

  Verse x4

  Pre-Chorus x1
  Chorus x2
  Post-Chorus x1
  Chorus x2
  Post-Chorus x1


That's it! Enjoy!
Suggest correction
Creating personal tab
Creating personal tab
You can edit any tab online and save it as your Personal.

You can edit, replace or remove any tab part or add personal notes – all changes will be seen only by you.

Personal tabs can be accessed anytime from any device, even offline.
Learn more »
Give kudos to tab author, rate the tab!
1 2 3 4 5
comments
print report bad tab
1 comment total.
0 reply
Dave-kun 187 Oct 07, 2014 10:19 AM

Thanks. But, I'm sure there must be
G:--------------------------------------|
D:--------------------------------------|
A:---------7---7----------6---6---------|
E:--5---5----5-----4---4----4-----------|

in the chorus

guest
You may want to rate the tab now too:
select rating
Wanna post a correction for this tab? Suggest correction