Oops, an error
Loading. Please wait.

Why Cant I Touch It Bass

6,259 views 21 this week
2 commentsread comments
1 2 3 4 5
x 5
add to favorites
×
Save as Personal and add changes to this tab that will be seen only by you. Learn more ›
×
You can save this tab as Personal to edit and correct it or add notes. All changes will be seen only by you. Learn more »
save as personal
new!
launch autoscroll
font size
0
reset
guitar tuner
Autoscroll
slow
fast
+/-
esc
set tempo
stop
-------------------------------------------------------------------------------
			    WHY CANT I TOUCH IT ? -Buzzcocks
-------------------------------------------------------------------------------

Tabbed By : Ramon is cool !
e-mail: n/a

Tuning:standard

   main riff played throughout the whole song

G|-----7777------------------|
D|---------------------------|
A|5--5-------5--03344--------|
E|---------------------------|

    also, try alternating with this slide riff

G|-----7777-------------|
D|----------------------|
A|5--5-------5--0/5|----|
E|----------------------|

   chorus
G|---------------------------------------------------------|
D|7-77-5-55-4-44-2-22-5-55-4-44-2-22-00--------------------|
A|---------------------------------------------------------|
E|---------------------------------------------------------|

      this is a fairly simple song. youll get it.
Suggest correction
comments
print report bad tab
2 comments total.
0 reply
JS5150 20 Sep 09, 2007 04:46 PM

What are the two power chords played in this song?

0 reply
bennyt93 20 Nov 04, 2008 04:19 PM

good, but the main riff is played like :
G|-----7777---------------|
D|------------------------|
A|5-5-------5-5------5----|
E|--------------5--7---7--|

guest
Wanna post a correction for this tab? Suggest correction