Oops, an error
Loading. Please wait.

Ordinary bass

version 1
version 1

Whole song

Interactive

462 views 1 this week
1 commentread comment
1 2 3 4 5
x 3
add to favorites
×
Save as Personal and add changes to this tab that will be seen only by you. Learn more ›
×
You can save this tab as Personal to edit and correct it or add notes. All changes will be seen only by you. Learn more »
launch autoscroll
font size
0
reset
guitar tuner
edit
Autoscroll
slow
fast
+/-
esc
set tempo
stop
Artist: The Buzzhorn
Song: Ordinary
Album:disconnected
inst.type: bass
tabbed by: NoFace
official site web of buzzhorn: www.thebuzzhorn.com

Intro: 00:00 (main chorus whitout lycris)

G/-------------------------------------------------------
D/-------------------------------------------------------
A/-------------------------------------------------------  
E/5-5-5-5-5-5-5-5--7-8-8-8-8--3-3-3-3-3-3-3-3--7-8-8-8-8-

G/---------------------------------------------
D/---------------------------------------------
A/--------------------------------------------- 
E/5-5-5-5-5-5-5-5--7-8-8-8-8--3-3-3-3-3-3-3-3--

G/--------------------------
D/--------------------------
A/--------------------------
E/7-8-7-8--8-7-6-5-4-3-0000-


Verse: 00:16 (Friend is the phone and the cigarettes)

G/-----------------------------------------------
D/-----------------------------------------------
A/-----------------------------------------------
E/3-3-3-3-3-3-3-3-3-3-3-3-3-3-3-3-3-3-3-3-3-3-3-3

G/-----------------------------------------------
D/-----------------------------------------------
A/-----------------------------------------------
E/5-5-5-5-5-5-5-5-5-5-5-5-5-5-5-5-5-5-5-5-5-5-5-5

G/-----------------------------------------------
D/-----------------------------------------------
A/-----------------------------------------------
E/3-3-3-3-3-3-3-3-3-3-3-3-3-3-3-3-3-3-3-3-3-3-3-3

G/---------------------------
D/---------------------------
A/---------------------------
E/5-5-5-5-5-5-5-5-5-5-5-5-5-5

G/---------------------
D/---------------------
A/---------------------
E/-7-8--7-8--8-7-5-3-0-

Chorus: 00:37 (This is your life, it's all been ordinary)

G/-------------------------------------------------------
D/-------------------------------------------------------
A/-------------------------------------------------------  
E/5-5-5-5-5-5-5-5--7-8-8-8-8--3-3-3-3-3-3-3-3--7-8-8-8-8-

G/---------------------------------------------
D/---------------------------------------------
A/--------------------------------------------- 
E/5-5-5-5-5-5-5-5--7-8-8-8-8--3-3-3-3-3-3-3-3--

G/--------------------------
D/--------------------------
A/--------------------------
E/7-8-7-8--8-7-6-5-4-3-0000-                                     X2(THE CHORUS)
                         

Verse: 01:04 (Bags that hang below your eyes) 

G/-----------------------------------------------
D/-----------------------------------------------
A/-----------------------------------------------
E/3-3-3-3-3-3-3-3-3-3-3-3-3-3-3-3-3-3-3-3-3-3-3-3

G/-----------------------------------------------
D/-----------------------------------------------
A/-----------------------------------------------
E/5-5-5-5-5-5-5-5-5-5-5-5-5-5-5-5-5-5-5-5-5-5-5-5

G/-----------------------------------------------
D/-----------------------------------------------
A/-----------------------------------------------
E/3-3-3-3-3-3-3-3-3-3-3-3-3-3-3-3-3-3-3-3-3-3-3-3

G/---------------------------
D/---------------------------
A/---------------------------
E/5-5-5-5-5-5-5-5-5-5-5-5-5-5

G/---------------------
D/---------------------
A/---------------------
E/-7-8--7-8--8-7-5-3-0-

Chorus : 01:26 (This is your life, it's all been ordinary)

G/-------------------------------------------------------
D/-------------------------------------------------------
A/-------------------------------------------------------  
E/5-5-5-5-5-5-5-5--7-8-8-8-8--3-3-3-3-3-3-3-3--7-8-8-8-8-

G/---------------------------------------------
D/---------------------------------------------
A/--------------------------------------------- 
E/5-5-5-5-5-5-5-5--7-8-8-8-8--3-3-3-3-3-3-3-3--

G/---------------------
D/---------------------
A/---------------------
E/-7-8--7-8--8-7-5-3-0-

G/-------------------------------------------------------
D/-------------------------------------------------------
A/-------------------------------------------------------  
E/5-5-5-5-5-5-5-5--7-8-8-8-8--3-3-3-3-3-3-3-3--7-8-8-8-8-

G/---------------------------------------------
D/---------------------------------------------
A/--------------------------------------------- 
E/5-5-5-5-5-5-5-5--7-8-8-8-8--3-3-3-3-3-3-3-3--


G/---------------------
D/---------------------
A/---------------------
E/7-8-7-8-8-7-6-5-4-3--

AFTER 2ND CHORUS: 01:52 ( At home yeah Find yourself At home) Do it strong:

G/-----------------------------------
D/-----------------------------------
A/-----------------------------------
E/0000-----8888-----0000-----8888----

Bridge: 02:09 (Life and death, the money that's left..)

G/---------------------------
D/---------------------------
A/---------------------------
E/3-3-3-3-3-3-3-3-3-3-3-3-3-3

G/---------------------------
D/---------------------------
A/---------------------------
E/5-5-5-5-5-5-5-5-5-5-5-5-5-5

G/---------------------------
D/---------------------------
A/---------------------------
E/3-3-3-3-3-3-3-3-3-3-3-3-3-3

G/-------------
D/-------------
A/-------------
E/5-5-5-5-5-5-5

Chorus: 02:20 (This is your life and all been ordinary)

G/-------------------------------------------------------
D/-------------------------------------------------------
A/-------------------------------------------------------  
E/5-5-5-5-5-5-5-5--7-8-8-8-8--3-3-3-3-3-3-3-3--7-8-8-8-8-

G/---------------------------------------------
D/---------------------------------------------
A/--------------------------------------------- 
E/5-5-5-5-5-5-5-5--7-8-8-8-8--3-3-3-3-3-3-3-3--

G/--------------------------
D/--------------------------
A/--------------------------
E/7-8-7-8--8-7-6-5-4-3-0000-                                   X4(THE CHORUS)



THE END          for contact/msn messenger: linkin_crawling@hotmail.com
Suggest correction
Creating personal tab
Creating personal tab
You can edit any tab online and save it as your Personal.

You can edit, replace or remove any tab part or add personal notes – all changes will be seen only by you.

Personal tabs can be accessed anytime from any device, even offline.
Learn more »
Give kudos to tab author, rate the tab!
1 2 3 4 5
comments
print report bad tab
1 comment total.
0 reply
T.B.K. 97 Aug 13, 2006 07:25 AM

i put you 2 im sorry but song is on dropped d and verse is

D -0-0-0-0-0-0-0-0-0--3-3-3-3-3-3-3-3-3-3-

guest
Wanna post a correction for this tab? Suggest correction