Oops, an error
Loading. Please wait.

Minecraft Tab

by C418
76,068 views 201 this week
12 commentsread comments
1 2 3 4 5
x 54
add to favorites
launch autoscroll
font size
0
reset
how to read this tab
guitar tuner
Autoscroll
slow
fast
+/-
esc
set tempo
stop
Help us to improve Ultimate-Guitar.com Take our survey!
×
Author
Difficulty
Tuning
novice
E A D G B E
The original music of the 10 minute daytime in Minecraft.
Listen here: http://c418.bandcamp.com/album/minecraft-volume-alpha
Let the notes ring


e|6----4-------2----------6----4--------------------|
B|---------4-----------------------4-----2----------|
G|--------------------------------------------------|
D|--------------------------------------------------|
A|--------------------------------------------------| (x4)
E|--------------------------------------------------|

e|6---------------2-----4----6----4----6-----9------|
B|-----2----4---------------------------------------|
G|--------------------------------------------------|
D|--------------------------------------------------|
A|--------------------------------------------------|
E|--------------------------------------------------|

e|6-----9--11-----9-----6----4-----6-----4-----2---|
B|--------------------------------------------------|
G|--------------------------------------------------|
D|--------------------------------------------------|
A|--------------------------------------------------|
E|--------------------------------------------------|

e|-----------2----4---6---2-------------------------|
B|-2----4---------------------2---------------------|
G|--------------------------------------------------|
D|--------------------------------------------------|
A|--------------------------------------------------|
E|--------------------------------------------------|


e|6----4-------2------4---6----4--------------------|
B|---------4-----------------------4-----2----------|
G|--------------------------------------------------|
D|--------------------------------------------------|
A|--------------------------------------------------| (x21 and fade around the last 5)
E|--------------------------------------------------|
Suggest correction
comments
print report bad tab
12 comments total. Showing first comments. show 2 bad comments
+6 reply
Mitchyo 105 Dec 08, 2012 09:44 PM

very good tab!

guest
You may want to rate the tab now too:
select rating
Wanna post a correction for this tab? Suggest correction