Oops, an error
Loading. Please wait.

Cuando El Diablo Bajo A Georgia bass

93 views 1 this week
no commentswrite comment
1 2 3 4 5
3 more votes to show rating
add to favorites
×
Save as Personal and add changes to this tab that will be seen only by you. Learn more ›
×
You can save this tab as Personal to edit and correct it or add notes. All changes will be seen only by you. Learn more »
launch autoscroll
font size
0
reset
guitar tuner
edit
Autoscroll
slow
fast
+/-
esc
set tempo
stop
Intro
G/----------------------------------------------/
D/----------------------------------------------/
A/-5---5---3---3---5-3---------5---3-5----3--5--/
E/---5---5---3---3-----6-5-3-5---5----------5---/

Verso
G/---------/---------/
D/---------/---------/
A/---3-5---/-0-2-3-4-/
E/-5-------/---------/

Coro
G/--------------------------------------------------------/
D/---------------------------------------------4-5---5--7-/
A/-5---5---3---3-------5---5-5---5---3-5---5-7-----5---5--/
E/---5---5---3---6-5-3---3-----5---5-----5----------------/

G/----------------------------------------/
D/-7-5------------------------------------/
A/-----8-7-5--5--3--3--5-3---------5--3-5-/
E/-----------5--5--3--3----6-5-3-5---5----/

Solo Demonio
Toca 5 veces Termina las primeras 4 veces 5ta vez asi
G/---------------------7-----------------/-----/-----/
D/---------------5-6-7---7-6-5---5-6-7---/-5---/-----/
A/---3-5-----5-8---------------8-------8-/---8-/-----/
E/-5-------------------------------------/-----/-0-2-/

G/----------------------3-5----------------/
D/-----------2-3-4-5--7--------------------/
A/-------3-5----------------3-5-----3---5--/
E/-3-5-6------------------------------5----/

Solo de Johnny's
G/-----------------------------------------------------------/
D/-----------------------------------------------------------/
A/-5--55--543--33--345--55--543--33--3-------5---5---3---3---/
E/-------------------------------------6-5-3---5---5---3---3-/

G/--------------------------------------------------------/
D/--------------------------------------------------------/
A/-5---5---3---3---5---5---3---3---------------------3-5--/
E/---5---5---3---3---5---5---3---3--5----5----5----5------/

G/-------------------------------------------/
D/-------------------------------------------/
A/-5--55--543--33--345--55--543--33--3-------/
E/-------------------------------------6-5-3-/

G/-----------------------------------------/
D/-----------------------------------------/
A/-5---5---3---3---5---5---3---3---5---5---/
E/---5---5---3---3---5---5---3---3---5---5-/

G/---------------------------------------7---5---3---2-----------/
D/-------5--7-5------7-5------7-5------------------------5---3---/
A/-3-5-7--------8-7------8-7-------8-7-5---3---1---0-----------55/
E/-----------------------------------------------------3---1-----/


bueno hay se las dejo
hechenle ganas
y recuerden puro para delante
para atras ni para tomar impulso.

dudas sugerencias

a mi correo
zide_18@

arriba chihuahua!!!!!!!.

            
            
Suggest correction
Creating personal tab
Creating personal tab
You can edit any tab online and save it as your Personal.

You can edit, replace or remove any tab part or add personal notes – all changes will be seen only by you.

Personal tabs can be accessed anytime from any device, even offline.
Learn more »
Give kudos to tab author, rate the tab!
1 2 3 4 5
comments
print report bad tab
guest
Wanna post a correction for this tab? Suggest correction