Oops, an error
Loading. Please wait.

Pillos De Mentes Tab

815 views 1 this week
no commentswrite comment
1 2 3 4 5
please rate
add to favorites
launch autoscroll
font size
0
reset
how to read this tab
guitar tuner
Autoscroll
slow
fast
+/-
esc
set tempo
stop
Help us to improve Ultimate-Guitar.com Take our survey!
×
Contributor
Si tienes delomopoes derti poalsk, aasqwwddnvominuhyheftu
Transcribed:Chola Mojon


Intro(x3):

e---7-X-X-7-X-X-7-X-X-7-X-X-7-X-7-X-7-X-7-X-7-X-7-X-7-7
b---8-X-X-8-X-X-7-X-X-7-X-X-8-X-8-X-8-X-7-X-7-X-7-X-7-7
G---9-X-X-9-X-X-7-X-X-7-X-X-9-X-9-X-9-X-7-X-7-X-7-X-7-7
D---9-X-X-9-X-X-7-X-X-7-X-X-9-X-9-X-9-X-7-X-7-X-7-X-7-7
A--7--X-X-7-X-X-5-X-X-5-X-X-7-X-7-X-7-X-5-X-5-X-5-X-5-5
E-O---X-X---X-X---X-X---X-X---X---X---X---X---X---X----
          
          Esta maldita sociedad...
e---7-X-X-7-X-X-7-X-X-7-X-X-7-X-7-X-7-X-7-X-7-X-7-X-7-7
b---8-X-X-8-X-X-7-X-X-7-X-X-8-X-8-X-8-X-7-X-7-X-7-X-7-7
G---9-X-X-9-X-X-7-X-X-7-X-X-9-X-9-X-9-X-7-X-7-X-7-X-7-7
D---9-X-X-9-X-X-7-X-X-7-X-X-9-X-9-X-9-X-7-X-7-X-7-X-7-7
A--7--X-X-7-X-X-5-X-X-5-X-X-7-X-7-X-7-X-5-X-5-X-5-X-5-5
E-O---X-X---X-X---X-X---X-X---X---X---X---X---X---X----
          
          está perdida por el crimen
e---7-X-X-7-X-X-7-X-X-7-X-X-7-X-7-X-7-X-7-X-7-X-7-X-7-7
b---8-X-X-8-X-X-7-X-X-7-X-X-8-X-8-X-8-X-7-X-7-X-7-X-7-7
G---9-X-X-9-X-X-7-X-X-7-X-X-9-X-9-X-9-X-7-X-7-X-7-X-7-7
D---9-X-X-9-X-X-7-X-X-7-X-X-9-X-9-X-9-X-7-X-7-X-7-X-7-7
A--7--X-X-7-X-X-5-X-X-5-X-X-7-X-7-X-7-X-5-X-5-X-5-X-5-5
E-O---X-X---X-X---X-X---X-X---X---X---X---X---X---X----
          no puedo vivir en paz
e---7-X-X-7-X-X-7-X-X-7-X-X-7-X-7-X-7-X-7-X-7-X-7-X-7-7
b---8-X-X-8-X-X-7-X-X-7-X-X-8-X-8-X-8-X-7-X-7-X-7-X-7-7
G---9-X-X-9-X-X-7-X-X-7-X-X-9-X-9-X-9-X-7-X-7-X-7-X-7-7
D---9-X-X-9-X-X-7-X-X-7-X-X-9-X-9-X-9-X-7-X-7-X-7-X-7-7
A--7--X-X-7-X-X-5-X-X-5-X-X-7-X-7-X-7-X-5-X-5-X-5-X-5-5
E-O---X-X---X-X---X-X---X-X---X---X---X---X---X---X----
         Pues le han robado hasta el himen de su hija...
e---7-X-X-7-X-X-7-X-X-7-X-X-7-X-7-X-7-X-7-X-7-X-
b---8-X-X-8-X-X-7-X-X-7-X-X-8-X-8-X-8-X-7-X-7-X-
G---9-X-X-9-X-X-7-X-X-7-X-X-9-X-9-X-9-X-7-X-7-X-
D---9-X-X-9-X-X-7-X-X-7-X-X-9-X-9-X-9-X-7-X-7-X-
A--7--X-X-7-X-X-5-X-X-5-X-X-7-X-7-X-7-X-5-X-5-X-
E-O---X-X---X-X---X-X---X-X---X---X---X---X---X-

¿Donde vamos a parar?                      Robos, crimenes y maldad...
e-----8--8--8--8--8--8--8--5-5-5-5-5-5-5------8--8--8--8--8--8--8--5-5-5-5-5-5-5-
b-----8--8--8--8--8--8--8--5-5-5-5-5-5-5------8--8--8--8--8--8--8--5-5-5-5-5-5-5-
G-----9--9--9--9--9--9--9--6-6-6-6-6-6-6------9--9--9--9--9--9--9--6-6-6-6-6-6-6-
D----10-10-10-10-10-10-10--7-7-7-7-7-7-7-----10-10-10-10-10-10-10--7-7-7-7-7-7-7-
A----10-10-10-10-10-10-10--7-7-7-7-7-7-7-----10-10-10-10-10-10-10--7-7-7-7-7-7-7-
E-5-7-8--8--8--8--8--8--8--5-5-5-5-5-5-5--5-7-8--8--8--8--8--8--8--5-5-5-5-5-5-5-

          Están todos paranoicos
e---7-X-X-7-X-X-7-X-X-7-X-X-7-X-7-X-7-X-7-X-7-X-7-X-7-7
b---8-X-X-8-X-X-7-X-X-7-X-X-8-X-8-X-8-X-7-X-7-X-7-X-7-7
G---9-X-X-9-X-X-7-X-X-7-X-X-9-X-9-X-9-X-7-X-7-X-7-X-7-7
D---9-X-X-9-X-X-7-X-X-7-X-X-9-X-9-X-9-X-7-X-7-X-7-X-7-7
A--7--X-X-7-X-X-5-X-X-5-X-X-7-X-7-X-7-X-5-X-5-X-5-X-5-5
E-O---X-X---X-X---X-X---X-X---X---X---X---X---X---X----
          
          nadie quiere ya salir
e---7-X-X-7-X-X-7-X-X-7-X-X-7-X-7-X-7-X-7-X-7-X-7-X-7-7
b---8-X-X-8-X-X-7-X-X-7-X-X-8-X-8-X-8-X-7-X-7-X-7-X-7-7
G---9-X-X-9-X-X-7-X-X-7-X-X-9-X-9-X-9-X-7-X-7-X-7-X-7-7
D---9-X-X-9-X-X-7-X-X-7-X-X-9-X-9-X-9-X-7-X-7-X-7-X-7-7
A--7--X-X-7-X-X-5-X-X-5-X-X-7-X-7-X-7-X-5-X-5-X-5-X-5-5
E-O---X-X---X-X---X-X---X-X---X---X---X---X---X---X----
          pues los pillos nunca duermen
e---7-X-X-7-X-X-7-X-X-7-X-X-7-X-7-X-7-X-7-X-7-X-7-X-7-7
b---8-X-X-8-X-X-7-X-X-7-X-X-8-X-8-X-8-X-7-X-7-X-7-X-7-7
G---9-X-X-9-X-X-7-X-X-7-X-X-9-X-9-X-9-X-7-X-7-X-7-X-7-7
D---9-X-X-9-X-X-7-X-X-7-X-X-9-X-9-X-9-X-7-X-7-X-7-X-7-7
A--7--X-X-7-X-X-5-X-X-5-X-X-7-X-7-X-7-X-5-X-5-X-5-X-5-5
E-O---X-X---X-X---X-X---X-X---X---X---X---X---X---X----
         y no sabes si hoy te toca a ti...
e---7-X-X-7-X-X-7-X-X-7-X-X-7-X-7-X-7-X-7-X-7-X-
b---8-X-X-8-X-X-7-X-X-7-X-X-8-X-8-X-8-X-7-X-7-X-
G---9-X-X-9-X-X-7-X-X-7-X-X-9-X-9-X-9-X-7-X-7-X-
D---9-X-X-9-X-X-7-X-X-7-X-X-9-X-9-X-9-X-7-X-7-X-
A--7--X-X-7-X-X-5-X-X-5-X-X-7-X-7-X-7-X-5-X-5-X-
E-O---X-X---X-X---X-X---X-X---X---X---X---X---X-

 ¿Donde vamos a parar?             Robos, crimenes y maldad...
e-----8--8--8--8--8--8--8--5-5-5-5-5-5-5------8--8--8--8--8--8--8--5-5-5-5-5-5-5-
b-----8--8--8--8--8--8--8--5-5-5-5-5-5-5------8--8--8--8--8--8--8--5-5-5-5-5-5-5-
G-----9--9--9--9--9--9--9--6-6-6-6-6-6-6------9--9--9--9--9--9--9--6-6-6-6-6-6-6-
D----10-10-10-10-10-10-10--7-7-7-7-7-7-7-----10-10-10-10-10-10-10--7-7-7-7-7-7-7-
A----10-10-10-10-10-10-10--7-7-7-7-7-7-7-----10-10-10-10-10-10-10--7-7-7-7-7-7-7-
E-5-7-8--8--8--8--8--8--8--5-5-5-5-5-5-5--5-7-8--8--8--8--8--8--8--5-5-5-5-5-5-5-

e-7-7-7-7-5-5-2-2-3-3-3-3-3-3-5-5-(x6 En rasgueo de ska)
b-7-7-7-7-5-5-2-2-3-3-3-3-3-3-5-5-
G-7-7-7-7-6-6-3-3-4-4-4-4-4-4-6-6-
D-9-9-9-9-7-7-4-4-5-5-5-5-5-5-7-7-
A-9-9-9-9-7-7-4-4-5-5-5-5-5-5-7-7-
E-7-7-7-7-5-5-2-2-3-3-3-3-3-3-5-5-
Cada dia hay mas ska, cada dia hay mas ska,
cada dia hay mas skalamientos(x4)

e---7-X-X-7-X-X-7-X-X-7-X-X-7-X-7-X-7-X-7-X-7-X-7-X-7-7(x3)
b---8-X-X-8-X-X-7-X-X-7-X-X-8-X-8-X-8-X-7-X-7-X-7-X-7-7
G---9-X-X-9-X-X-7-X-X-7-X-X-9-X-9-X-9-X-7-X-7-X-7-X-7-7
D---9-X-X-9-X-X-7-X-X-7-X-X-9-X-9-X-9-X-7-X-7-X-7-X-7-7
A--7--X-X-7-X-X-5-X-X-5-X-X-7-X-7-X-7-X-5-X-5-X-5-X-5-5
E-O---X-X---X-X---X-X---X-X---X---X---X---X---X---X----
          
         Los politicos prometen
e---7-X-X-7-X-X-7-X-X-7-X-X-7-X-7-X-7-X-7-X-7-X-7-X-7-7
b---8-X-X-8-X-X-7-X-X-7-X-X-8-X-8-X-8-X-7-X-7-X-7-X-7-7
G---9-X-X-9-X-X-7-X-X-7-X-X-9-X-9-X-9-X-7-X-7-X-7-X-7-7
D---9-X-X-9-X-X-7-X-X-7-X-X-9-X-9-X-9-X-7-X-7-X-7-X-7-7
A--7--X-X-7-X-X-5-X-X-5-X-X-7-X-7-X-7-X-5-X-5-X-5-X-5-5
E-O---X-X---X-X---X-X---X-X---X---X---X---X---X---X----
          
          que todo va a mejorar
e---7-X-X-7-X-X-7-X-X-7-X-X-7-X-7-X-7-X-7-X-7-X-7-X-7-7
b---8-X-X-8-X-X-7-X-X-7-X-X-8-X-8-X-8-X-7-X-7-X-7-X-7-7
G---9-X-X-9-X-X-7-X-X-7-X-X-9-X-9-X-9-X-7-X-7-X-7-X-7-7
D---9-X-X-9-X-X-7-X-X-7-X-X-9-X-9-X-9-X-7-X-7-X-7-X-7-7
A--7--X-X-7-X-X-5-X-X-5-X-X-7-X-7-X-7-X-5-X-5-X-5-X-5-5
E-O---X-X---X-X---X-X---X-X---X---X---X---X---X---X----

y los pillos muerto de la risa miralos alli  en la esquina del viejo bar
e---7-X-X-7-X-X-7-X-X-7-X-X-7-X-7-X-7-X-7-X-7-X-7-X-7-7
b---8-X-X-8-X-X-7-X-X-7-X-X-8-X-8-X-8-X-7-X-7-X-7-X-7-7
G---9-X-X-9-X-X-7-X-X-7-X-X-9-X-9-X-9-X-7-X-7-X-7-X-7-7
D---9-X-X-9-X-X-7-X-X-7-X-X-9-X-9-X-9-X-7-X-7-X-7-X-7-7
A--7--X-X-7-X-X-5-X-X-5-X-X-7-X-7-X-7-X-5-X-5-X-5-X-5-5
E-O---X-X---X-X---X-X---X-X---X---X---X---X---X---X----
 
        le hacen burlas y roban mucho mas...
e---7-X-X-7-X-X-7-X-X-7-X-X-7-X-7-X-7-X-7-X-7-/
b---8-X-X-8-X-X-7-X-X-7-X-X-8-X-8-X-8-X-7-X-7-/
G---9-X-X-9-X-X-7-X-X-7-X-X-9-X-9-X-9-X-7-X-7-/
D---9-X-X-9-X-X-7-X-X-7-X-X-9-X-9-X-9-X-7-X-7-/
A--7--X-X-7-X-X-5-X-X-5-X-X-7-X-7-X-7-X-5-X-5-/
E-O---X-X---X-X---X-X---X-X---X---X---X---X---/

e---------------9-----------------X-X--------
b---------------9-----------------X-X--------
G---------------9--7h9p7----------X-X--------
D----------5----9-------9-7h9-5h6-X-X--------
A---------5-7-5-7-----------------X-X----5-7-
E-0-3-5/7-------------------------X-X-3-3----

e---------------9-----------------------------
b---------------9-----------------------------
G---------------9--7h9p7----------------------
D----------5----9-------9-7h9-5h6-------------
A---------5-7-5-7-----------------7-----------
E-0-3-5/7---------------------------3----3----

e---------------9-----------------------------(x4)
b---------------9-----------------------------
G---------------9--7h9p7----------------------
D----------5----9-------9-7h9-5h6-------------
A---------5-7-5-7-----------------7-6-5-------
E-0-3-5/7-------------------------------7-5-3-

Esta maldita sociedad, llena de crímenes y mucha maldad
Mira mi gente no estas cooperando y a los tuyos no estas ayudando
Robos, asesinos, criminalidad, de eso está pregnada nuestra sociedad
Mira tu joven ve meditando y así a tus hijos no irás arruinando.

e-7-7-7-7-5-5-2-2-3-3-3-3-3-3-5-5-(x2 En rasgueo de reggae un poco rapido)
b-7-7-7-7-5-5-2-2-3-3-3-3-3-3-5-5-
G-7-7-7-7-6-6-3-3-4-4-4-4-4-4-6-6-
D-9-9-9-9-7-7-4-4-5-5-5-5-5-5-7-7-
A-9-9-9-9-7-7-4-4-5-5-5-5-5-5-7-7-
E-7-7-7-7-5-5-2-2-3-3-3-3-3-3-5-5-

e-7-7-7-7-5-5-2-2-3-3-3-3-3-3-5-5-(x6 En rasgueo de ska)
b-7-7-7-7-5-5-2-2-3-3-3-3-3-3-5-5-
G-7-7-7-7-6-6-3-3-4-4-4-4-4-4-6-6-
D-9-9-9-9-7-7-4-4-5-5-5-5-5-5-7-7-
A-9-9-9-9-7-7-4-4-5-5-5-5-5-5-7-7-
E-7-7-7-7-5-5-2-2-3-3-3-3-3-3-5-5-
Cada dia hay mas ska, cada dia hay mas ska,
cada dia hay mas skalamientos(x4)

e---------------9-----------------------------(x2)
b---------------9-----------------------------
G---------------9--7h9p7----------------------
D----------5----9-------9-7h9-5h6-------------
A---------5-7-5-7-----------------7-6-5-------
E-0-3-5/7-------------------------------7-----

                                            'Esta maldita sociedad esta perdida por 
                                              el crimen y no puede seguir así.'
e---------------9-----------------------------------------------------------------X-
b---------------9-----------------------------------------------------------------X-
G---------------9--7h9p7----------------------------------------------------------X-
D----------5----9-------9-7h9-5h6-------------------------------------------------X-
A---------5-7-5-7-----------------7-6-5-------------------------------------------X-
E-0-3-5/7-------------------------------7-5-3~~~~~~~~~~~~~~~~~~~~~~~~~~~~~~~~~~~~~X-

                                         'Matan, roban, trafican, violan, esto 
                                          está del cara’'
e---------------9----------------------------------------------------------------X-
b---------------9----------------------------------------------------------------X-
G---------------9--7h9p7---------------------------------------------------------X-
D----------5----9-------9-7h9-5h6------------------------------------------------X-
A---------5-7-5-7-----------------7-6-5------------------------------------------X-
E-0-3-5/7-------------------------------7-5~~~~~~~~~~~~~~~~~~~~~~~~~~~~~~~~~~~~~~X-

                                       'Sal de la calle. No pierdas tu tiempo. 
                                          Has algo por tu patria.'
e---------------9----------------------------------------------------------------X-
b---------------9----------------------------------------------------------------X-
G---------------9--7h9p7---------------------------------------------------------X-
D----------5----9-------9-7h9-5h6------------------------------------------------X-
A---------5-7-5-7-----------------7-6-5------------------------------------------X-
E-0-3-5/7-------------------------------7~~~~~~~~~~~~~~~~~~~~~~~~~~~~~~~~~~~~~~~~X-

                                                'Esta pendejá' se tiene 
                                                  que acabar mi gente.'
e--------------------------------------------------------------------------
b--------------------------------------------------------------------------
G--------------------------------------------------------------------------
D----------5-----------5----------5-----------5----------------------------
A---------5-7-5------5-7---------5-7---------5-7---------------------------
E-0-3-5/7-------3-5/7-------3-5/7-------3-5/7------------------------------

e---------------------------------------5-5-
b---------------------------------------5-5-
G-7h9p7---------------------------------6-6-
D------9-7h9-5h6------------------------7-7-
A----------------7-6-5------------------7-7-
E----------------------7-5-3~~~~~~~~~~~~5-5-
comments
We did not receive enough feedback on this tab! Please rate:
print report bad tab
1 2 3 4 5
I want to post or [tab]
guest
You may want to rate the tab now too:
select rating
Please do not post tabs as comments. Select "correction" instead!