Oops, an error
Loading. Please wait.

Colon Camal tab

56 views 3 this week
no commentswrite comment
1 2 3 4 5
3 more votes to show rating
add to favorites
×
Save as Personal and add changes to this tab that will be seen only by you. Learn more ›
×
You can save this tab as Personal to edit and correct it or add notes. All changes will be seen only by you. Learn more »
launch autoscroll
font size
0
reset
how to read this tab
guitar tuner
edit
Autoscroll
slow
fast
+/-
esc
set tempo
stop
  Ritmo 1:           Ritmo 2:
e ------------------|--------------------------|----------------------
B ------------------|--------------------------|----------------------
G ------------------|--------------------------|----------------------
D ------6-5-4-2-42--|-------------4-4-4-4-4-4--|----------------------
A -4-4-44-3-2-0-20--|-2-2-2-2-2-2-2-2-2-2-2-2--|----------------------
E -2-2-2------------|-0-0-0-0-0-0--------------|----------------------

  Ritmo 3:
e --------------------------------------------------|-----------------
B --------------------------------------------------|-----------------
G --------------------------------------------------|-----------------
D -------------4-4-4-4-4-4--------------------------|-----------------
A -2-2-2-2-2-2-2-2-2-2-2-2-2-2-2-2-2-2/4-4-4-4-4-4\-|-----------------
E -0-0-0-0-0-0-------------0-0-0-0-0-0/2-2-2-2-2-2\-|-----------------

  Ritmo 4:             Ritmo 5:
e --------------------|--------------------------|--------------------
B --------------------|--------------------------|--------------------
G --------------------|--------------------------|--------------------
D --------------------|--------------------------|--------------------
A -2---2-2-2-2-4/5\4--|-7-7-7-7-7-7/9-9-9-9-9-9\-|--------------------
E -0---0-0-0-0-2/3\2--|-5-5-5-5-5-5/7-7-7-7-7-7\-|--------------------

  Ritmo 6:             	   Ritmo 7:
e ------------------------|------------------------|------------------
B ------------------------|------------------------|------------------
G ------------------------|------------------------|------------------
D -----4-2----------------|-----4-2----------------|------------------
A -4-2-2-0-4--------------|-2-4-2-0-4--------------|------------------
E -2-0-----2-2-0-2-0-2-0--|-0-2-----2-2-0-2-0-2-0--|------------------

  (1)x6
  (2)x4
  (1)x4

  (3) Es otro día, es otro día Con chuchaqui y a camellar
  (3) siete en punto de la mañana y la buseta sin alistar
  (4)
  (3) sale corriendo ya va muy tarde y el colectivo atras le espera
  (3) monta violento y acelerando le saca la (piii) a su buseta
  (5) Y cuando llega a la Villaflora
  (5) No ve a nadie en la parada
  (5) Pues el cabron del Ejecutivo
  (5) se ha adelantado a su llegada
  (1) Siga reinita
  (1) atras hay donde
  (1) ahi caben cinco
  (3) y murmurando en silencio obsenidades a su colega
  (3) lleva adelante catorce cuadras regocijado con su clientela
  (5) el atrasado ya le da alcance
  (5) y lo adelanta por cuadra y media
  (5) sube la gente ahi amontonada
  (5) como sardinas en la cafetera
  (5) como en la cafetera

Solo

  (2)x4
  (4)x2
  (3) Los dos choferes en gran disputa como dos buitres tras de su presa
  (3) Toda la gente paralizada ruegan al chofer que se detenga
  (5) No para a señoras no para a viejitos
  (5) y con los chapas ya se hace el loco
  (5) el de los chicles salio volando
  (5) el del comercio gira como un trompo
  (3) y cuando llegan a la esquina el amarillo cambiaba a rojo
  (3) y un wolkswagen infortunado fue envestido por aquel toro
  (5) el incidente no toreo mas sangre
  (5) y el infeliz emprendio la huida
  (5) dos huerfanitos con trajes negros
  (5) lloran la muerte en la avenida 
  (6)x4
  (7)x4
  (4)Servidos,  gracias.

            
            
Suggest correction
Creating personal tab
Creating personal tab
You can edit any tab online and save it as your Personal.

You can edit, replace or remove any tab part or add personal notes – all changes will be seen only by you.

Personal tabs can be accessed anytime from any device, even offline.
Learn more »
Give kudos to tab author, rate the tab!
1 2 3 4 5
comments
print report bad tab
guest
Wanna post a correction for this tab? Suggest correction